Song name
# A B C D E F G H I J K L M N O P Q R S T U V W X Y Z

Ewan Dobson - Time 2 tab

                    Hello everybody!

                              This is a great song!

  BEFORE YOU LEARN IT you should know that to play the song properly you'll
  need a delay effect, but ofcourse you already knew that. Once you've set
  the delay time you can only play the song in a specific BPM.
  
  Pretty accurate delay settings: 310ms time, 25% feedback, 50% mix


  Intro 1     (0.00-0.13)
e|--------------------------------------------------------------------------|
C|--4-6-7-4-6-7-6-4-0-0-4-0-9-9-7-6-4-6-7-4-6-7-6-4-0-0-4-0-2-2-6-2---------|
G|--------------------------------------------------------------------------|
C|--------------------------------------------------------------------------|
G|--------------------------------------------------------------------------|
C|--------------------------------------------------------------------------|
    . . . . . . . . . . . . . . . . . . . . . . . . . . . . . . . .    (x1)

  Intro 2     (0.13-0.26)
e|--------------------------------------------------------------------------|
C|--------------------------------------------------------------------------|
G|--------------------------------------------------------------------------|
C|--4-6-7-4-6-7-6-4-0-0-4-0-9-9-7-6-4-6-7-4-6-7-6-4-0-0-4-0-2-2-6-2---------|
G|--------------------------------------------------------------------------|
C|--------------------------------------------------------------------------|
    . . . . . . . . . . . . . . . . . . . . . . . . . . . . . . . .    (x1)

  Verse     (0.26-0.43)
e|--------------------------------------------------------------------------|
C|--------------------------------------------------------------------------|
G|--------------------------------------------------------------------------|
C|----7---7---7---7---7---7---11--11--4---6---------------------------------|
G|--------------------------------------------------------------------------|
C|--4---4---4---4---4---4---7---7---0---2-----------------------------------|
    . . . . . . . . . . . . . . . . . . . .                            (x4)

  Chorus     (0.43-0.56)   
e|--------7-5------------------------------7-5---------7-8-7-0-3-5-2--------|
C|----4-7-----7-6-4---7-11-7-0-4-6-2---4-7-----7-6-4------------------------|
G|--------------------------------------------------------------------------|
C|----4---4---4---4---7----7---0---2---4---4---4---4---7---7---0---2--------|
G|--------------------------------------------------------------------------|
C|--4---4---4---4---7---7----0---2---4---4---4---4---7---7---0---2----------|
    . . . . . . . . . . .  . . . . . . . . . . . . . . . . . . . . .    

e|--------7-5------------------------------7-5-------7-7-8-7-0-3-5-2--------|
C|----4-7-----7-6-4---7-11-7-0-4-6-2---4-7-----7-6-4------------------------|
G|--------------------------------------------------------------------------|
C|----4---4---4---4---7----7---0---2---4---4---4---4---7---7---0---2--------|
G|--------------------------------------------------------------------------|
C|--4---4---4---4---7---7----0---2---4---4---4---4---7---7---0---2----------|
    . . . . . . . . . . .  . . . . . . . . . . . . . . . . . . . . .   (x1)
                (melody tones are not palm muted in the chorus)

  Bridge     (0.56-1.03)
e|--7-let-ring--------------------------------------------------------------|
C|----4-let-ring------------------------------------------------------------|
G|--------------------------------------------------------------------------|
C|----4---4---4---4---11--11--4---6---7---7---7---7---7---7---11--11--4---6-|
G|--------------------------------------------------------------------------|
C|--4---4---4---4---7---7---0---2---4---4---4---4---4---4---7---7---0---2---|
    . . . . . . . . . . . . . . . . . . . . . . . . . . . . . . . . . . . .
                                                                       (x1)
  Chorus 2     (1.03-1.17)
e|--------------------------------------------------------------------------|
C|--------------------------------------------------------------------------|
G|----------4--------------------------------4------------------------------|
C|----4-6-7---7-6-4---7-11-7-0-4-6-2---4-6-7---7-6-4---7-11-12-0-4-6-2------|
G|----4---4---4---4---7----7---0---2---4---4---4---4---7----7----0---2------|
C|--4---4---4---4---7---7----0---2---4---4---4---4---7---7-----0---2--------|
    . . . . . . . . . . .  . . . . . . . . . . . . . . . .  .  . . . . (x2)
                     (melody tones not palm muted here either)

  Verse 2     (1.17-1.25)
e|--------------------------------------------------------------------------|
C|--------------------------------------------------------------------------|
G|--------------------------------------------------------------------------|
C|--7-7---7---7---7---7---7---11--11--4---6---------------------------------|
G|--------------------------------------------------------------------------|
C|--4---4---4---4---4---4---7---7---0---2-----------------------------------|
    . . . . . . . . . . . . . . . . . . . .
e|--------------------------------------------------------------------------|
C|--------------------------------------------------------------------------|
G|--------------------------------------------------------------------------|
C|----7---7---7---7---7---7---11--11--4---6---------------------------------|
G|--------------------------------------------------------------------------|
C|--4---4---4---4---4---4---7---7---0---2-----------------------------------|
    . . . . . . . . . . . . . . . . . . . .                            (x1)


and then,  Intro       (1.25-1.39)

           Intro 2     (1.39-1.52)

           Verse       (1.52-2.09)

           Chorus      (2.09-2.22)

           Bridge      (2.22-2.30)

           Chorus 2    (2.30-2.43)

           Verse 2     (2.43-2.52)


  Outro     (2.52-3.10)
e|--------------------------------------------------------------------------|
C|--------------------------------------------------------------------------|
G|--------------------------------------------------------------------------|
C|----7---7---7---7---7---7---4---6-----------------------------------------|
G|--------------------------------------------------------------------------|
C|--4---4---4---4---4---4---0---2-------------------------------------------|
                                                                  (x4)

e|-------------------------------------|
C|------4------------------------------|
G|-----4-------------------------------|
C|----7--------------------------------|
G|---4---------------------------------|
C|--4----------------------------------|
         (let ring and slide out)



                           From Alx
Tap to rate this tab
 
# A B C D E F G H I J K L M N O P Q R S T U V W X Y Z