Exit Motel - Mirrors tab

-------------------------------------------------------------------------------
			                              MIRRORS - Exit Motel
-------------------------------------------------------------------------------
Tabbed by: Kevin Croner (Kevin2407)
Email: kevincroner@hotmail.com

Acoustic Guitar's Tuning: 

- Eb ? Db D# Bb ? -

The ?s represent strings that aren't played and have an unknown tuning.

Effects:
Reverb


Two Electric Distorted Guitars' Tuning: 

- E  A D  G  B  e - (Standard)


Effects:

Reverb 
High gain and tone
Slight feedback
One uses a Wah-Wah in the second solo. 



- Always let all notes ring out! -


e |------------------------|----------------------|-
Bb|-----3----2h3-----------|-3--------2h3---------| |
D#|------------------0-----|------------------0---| |
Db|--------2------2--------|-------2-------2------| |
A |------------------------|----------------------| |
Eb|0-------------------0---|----------------------| |
						     - Repeat throughout
e |------------------------|----------------------| |   the whole song.
Bb|-----3----2h3-----------|-3--------2h3---------| |
D#|------------------0-----|------------------0---| |
Db|--------2------2--------|-------2-------2------| |
A |------------------------|----------------------| |
Eb|3-------------------5---|----------------------|-



Around 2:01 solo guitar starts quietly and then begins with the solo:

e |----------------------|---------------------------------------------------|
B |7--/9-------(11)\-----|-----------------2------/14------16\14---13/14---11|
G |----------------------|---3/------5---------------------------------------|
D |----------------------|---------------------------------------------------|
A |----------------------|---------------------------------------------------|
E |----------------------|---------------------------------------------------|

						    [Song begins here again]
e |--------------------------------------------------------------------------|
B |-11--------\7----9----6~-----------7---6-----4----4\----------------------|
G |-----------------------------------------------------3~----------/5-/6----|
D |--------------------------------------------------------------------------|
A |--------------------------------------------------------------------------|
E |--------------------------------------------------------------------------|

e |--------------------------------------------------------------------------|
B |-------------------(2)-----/14---/16-------------\3--------------/5-/6----|
G |-----6-----\3~------------------------------------------------------------|
D |--------------------------------------------------------------------------|
A |--------------------------------------------------------------------------|
E |--------------------------------------------------------------------------|


Repeat this until second solo:

e |--------------------------------------------------------------------------|
B |---\4~------------------------------------------------------------(4)/7---|
G |--------------------------------------------------------------------------|
D |--------------------------------------------------------------------------|
A |--------------------------------------------------------------------------|
E |--------------------------------------------------------------------------|


Around 3:55, solo/outro:

Guitar 1 (play around with the wah-wah)

e |--------------------------------------------------------------------------|
B |--(4)/7----\6----\4----\2--------1----/2-----4\------------16--14--13--11-|
G |-----------------------------------------------------3--------------------|
D |--------------------------------------------------------------------------|
A |-------------------------------- Just play around with all these tones ---|
E |--------------------------------------- for some time --------------------|


Guitar 2 (repeats this pretty much all the time until end)

e |----------------------------------------------------|
B |-/16----16\14/16---16\14/16---16\14/16---16\14------|
G |----------------------------------------------------|
D |----------------------------------------------------|
A |----------------------------------------------------|
E |----------------------------------------------------|

e |----------------------------------------------------|
B |-\13----13\11/13---13\11-------\9---9\7/9----7~-----|
G |----------------------------------------------------|
D |----------------------------------------------------|
A |----------------------------------------------------|
E |----------------------------------------------------|


************************************

|  /   slide up
|  \   slide down
|  h   hammer-on
|  p   pull-off
| (2)  Ghost note
|  ~   Vibrato

************************************

Exit Motel: http://www.myspace.com/exitmotel
Tap to rate this tab
 
# A B C D E F G H I J K L M N O P Q R S T U V W X Y Z