Guitaretab - guitar tabs
Song name
# A B C D E F G H I J K L M N O P Q R S T U V W X Y Z

Exploited - Dogs Of War tab

------------------------------- Gutitar Tabs -------------------------------


The Exploited : Dogs of War


 Verse 
|----------------------------|
|----------------------------|
|-----------------7\---------|
|--9--9-9-9-9--5/-7\-7-------|8x
|--9--9-9-9-9--5/-5\-7-------|
|--7--7-7-7-7--3/----5-------|
           
 Chorus
|-----------------------|
|-----------------------|
|----8----6-------------|
|----9----7-------------|4x
|----9----7-------------|
|----7----5-------------|

 Bridge
|----------------------|
|----------------------|
|----------------------|
|--9-9-9-9-9-5-5-7-7---|4x
|--9-9-9-9-9-5-5-7-7---|
|--7-7-7-7-7-3-3-5-5---|
PM...................                   

Verse
Chorus
Verse
Chorus
Bridge
Verse
Chorus

..................Tabs by Yan 

Lyric:

I've got a uniform. 
And I'm okay. 
Killing and ripping. 
Just for a day. 
[ Tab from: http://www.guitaretab.com/e/exploited/161824.html ]
[chorus:] 
Dogs of war, but after you. 
Dogs of war, but after you. 
Dogs of war, but after you. 
Dogs of war, BUT AFTER YOU. 

Stab him with my pinner. 
I'll shoot him with my gun. 
I'm a psycho killer. 
Just for fun. 

[chorus] 

Dogs of War. 
Dogs of War.. 
Dogs of War... 
Dogs of War.... 

What does it mean? 
And I don't give a damn. 
Let me forget. 
Cause tomorrow you're dead. 

[chorus] 
-------------------------------------------------

--chorus for Live version 
|------------------------|
|------------------------|
|------------------------|
|----9-9-9-9--7-7-7-7----|4x
|----9-9-9-9--7-7-7-7----|
|----7-7-7-7--5-5-5-5----|


--Bridge for live version
         
           3x                      1x
|----------------------|--------------------------------|
|----------------------|-------------------------7---5--|
|----------------------|-------------------------7---5--|
|--9-9-9-9-9-5-5-7-7---|--9-9-9-9-9-5-5-7-7-9-9--5---3--|4x
|--9-9-9-9-9-5-5-7-7---|--9-9-9-9-9-5-5-7-7-9-9---------|
|--7-7-7-7-7-3-3-5-5---|--9-9-9-9-9-3-3-5-5-7-7---------|
PM...................    ....... 
Related for Dogs Of War tab
Advertisement will be closed in 10 seconds