Song name
# A B C D E F G H I J K L M N O P Q R S T U V W X Y Z

Exploited - Army Life tab

The Exploited
Army life : Single version


Intro        x2                         x1
e----------------------------|----------------------------------------|
B----------0---3---0---------|--------0---3---0------0-3-0------------|
G----------------------0-----|--------------------0-------------------|
D-------5--------------------|----5-----------------------------------|
A----------------------------|----------------------------------------|
E----------------------------|----------------------------------------|
                          ( x 5 )
                           -----
  verse 1   x7
e--------------------------------------------------------------------|
B--------------------------------------------------------------------|
G----5---5-5-5-5-5-5-5-5-5-5----8-8----------------------------------|
D----5---5-5-5-5-5-5-5-5-5-5----8-8-8--------------------------------|
A----3---3-3-3-3-3-3-3-3-3-5----6-6-8--------------------------------|
E-----------------------------------6--------------------------------|

           x1
e--------------------------------------------------------------------|
B--------------------------------------------------------------------|
G--------------8-8-8-8-----5---5---5---5---5---5---------------------|
D---6-6-6-6-6--8-8-8-8-----5---5---5---5---5---5---------------------|
A---6-6-6-6-6--6-6-6-6-----3---3---3---3---3---3---------------------|
E---4-4-4-4-4--------------------------------------------------------|

            x1
e--------------------------------------------------------------------|
B--------------------------------------------------------------------|
G--------------8-8-8-8-----(-5-)-------------------------------------|
D---6-6-6-6-6--8-8-8-8-----(-5-)-------------------------------------|
A---6-6-6-6-6--6-6-6-6-----(-3-)-------------------------------------|
E---4-4-4-4-4--------------------------------------------------------|


....and repeat

       palm mute when wattie sing
e--------------------------------------------------------------------|
B---------PM-.-.-.-.-.-.-.-------------------------------------------|
G----5---5-5-5-5-5-5-5-5-5-5----8-8----------------------------------|
D----5---5-5-5-5-5-5-5-5-5-5----8-8-8--------------------------------|
A----3---3-3-3-3-3-3-3-3-3-5----6-6-8--------------------------------|
E-----------------------------------6--------------------------------|

 ( ) = lets ring


Tap to rate this tab
# A B C D E F G H I J K L M N O P Q R S T U V W X Y Z