Song name
# A B C D E F G H I J K L M N O P Q R S T U V W X Y Z

Extremoduro - Autorretrato tab

Aqui teneis la segunda parte de autorretrato
Una guitarra hace todo el rato esto

--------------------------------------------------------|
--------------------------------------------------------|
--5-x-x-4-x-5-5-x-4-5/----------------------------------|
--5-x-x-5-x-5-5-x-5-5/-------3------3------4------4-----|
-----------------------------3------3------4------4-----|
-------------------------1-1-1--1-1-1--2-2-2--2-2-2-----|


--------|         Esto lo hace siempre
--------|         cuando el robe empieza a cantar
--------|         despues de lo de arriba
---/7---|
---/7---|
---/5---|


el bajo hace esto
Esto lo hace hasta que hace le solo

--------------------------------------------------------------------|
--------------------------------------------------------------------|
---0-0-0-0-0-0-0-0-0-0-0-0-0-0-0-0------3------3-------4------4-----|
------------------------------------1-1----1-1-----2-2----2-2-------|

Esto seria lo que haria la trompeta pero con guitarra
                                                             x4
-----------------------------------------------------------|
------------6--7-----------6--7--6--7----------------------|
------7--9-----------7--9--------------9--7----------------|
---9--------------9--------------------------9--7----------|
---------------------------------------------------8----9--|
-----------------------------------------------------------|

                                                             x1
-----------------------------------------------------------|
-----------------------------------------------------------|
-----------------------------------------------------------|
-----------------------------------------------------------|
-----------3---------3----------5----------5---------------|
---/5--1-1---1---1-1---1----2-2---2----2-2---2-------------|

                                                              x3
------------------------------------------------------------|
------------------------------------------------------------|
---------------/5-------------------------------------------|
-----------/7-----------------------------------------------|
-------/7---------------3---------3----------5----------5---|
---/5---------------1-1---1---1-1---1----2-2---2----2-2---2-|

Solo de bajo

                                                               x4
------------------------------------------------------------|
------------------------------------------------------------|
---0-0--3-0-2-0---------3---------3----------5----------5---|
----------------3---1-1---1---1-1---1----2-2---2----2-2---2-|
Tap to rate this tab
# A B C D E F G H I J K L M N O P Q R S T U V W X Y Z