Song name
# A B C D E F G H I J K L M N O P Q R S T U V W X Y Z

Ezkisofrenia - Paranoia tab

-----7-------3-----2--------------------------------|
-----7-------3-----2--------------------------------|
-----7-------3-----2--------------------------------|
-----9-x-(5)-5-x(5)4--------------------------------|
-----9-------5-----4--------------------------------|
-----7-------3-----2--------------------------------|

Solo

----------------------------------------------------|
----------------------------------------------------|
-------------5--7-999999555555444444----------------|
--------5--7----------------------------------------|
---5--7---------------------------------------------|
----------------------------------------------------|
Tap to rate this tab
# A B C D E F G H I J K L M N O P Q R S T U V W X Y Z