Song name
# A B C D E F G H I J K L M N O P Q R S T U V W X Y Z

Fabrizio Moro - Domani tab

Fabrizio Moro - Domani


=== Questo viene suonato pi o meno durante tutta la canzone:
=== This is played during almost all the song:

|-----------------------|-----------------------|-----------------------|-----------------------|
|-----------------------|-----------------------|-----------------------|-----------------------|
|-9----------9----------|-9----------9----------|-7----------7----------|-7----------7----------|
|---10-10-10---10-10-10-|---10-10-10---10-10-10-|---10-10-10---10-10-10-|---10-10-10---10-10-10-|
|-----------------------|-----------------------|-----------------------|-----------------------|
|-----------------------|-----------------------|-----------------------|-----------------------|

|-----------------------|-----------------------|-----------------------|-----------------------|
|-----------------------|-----------------------|-----------------------|-----------------------|
|-9----------9----------|-9----------9----------|-10---------10---------|-10---------10---------|
|---10-10-10---10-10-10-|---10-10-10---10-10-10-|---10-10-10---10-10-10-|---10-10-10---10-10-10-|
|-----------------------|-----------------------|-----------------------|-----------------------|
|-----------------------|-----------------------|-----------------------|-----------------------|

(lasciare suonare le corde per produrre un effetto "eco in dissolvenza")
(let ring and try to make a "dissolved echo" effect)

=== Ed ecco gli accordi:
=== And these are the chords:

                                                                                  Chord Reference:
                                                                                C = DO =    x32010
                                                                                Am = LAm =  x02210
                                                                                G = SOL =   355433
                                                                                F = FA =    133211
Domani arriver fra un [C]po'
Ma tu sei sveglia gi
Avrai bisogno di qualcosa da dire
Avrai bisogno di qualcosa da fare

Ma sar solo un altro [Am]giorno
Un nuovo giorno per ri[G]cominciare
Domani proverai a di[F]menticarti tutto
Domani metterai un vestito e un po' di trucco
Per sentirti di[C]versa
Perch diversa  la tua vita
Diresti che  un po' pi in salita
Ma ce l'hai fatta gi altre volte
E ti ripeti che sei [Am]forte
Che dopo [G]tutto in fondo anche questa passe[F]r
Passer

Domani do[C]mani
Domani domani
Dai che domani uscir il [G]sole
Anche se dentro [F]piove.  [C]

E poi c' la psicolo[C]gia
Che da equilibrio ad ogni tua idea
E ti ripeti che sei [Am]forte
Che dopo [G]tutto in fondo un altro amore arrive[F]r
Arriver

Domani do[C]mani
Domani domani
Dai che domani uscir il [G]sole
Anche se dentro [F]piove
Domani do[C]mani
Domani domani
Dai che domani uscir il [G]sole
Anche se dentro [F]piove.  [C]

[Am] [C]

Dai che domani uscir il [F]sole
Dai che domani uscir il sole
Dai che domani uscir il [C]sole.
Tap to rate this tab
# A B C D E F G H I J K L M N O P Q R S T U V W X Y Z