Song name
# A B C D E F G H I J K L M N O P Q R S T U V W X Y Z

Face To Face - Dont Turn Away tab

this is pretty much it, punkrockdave@live.com 

intro/verse
e|------------------------------------------------------------------------|
b|------------------------------------------------------------------------|
g|----------55555555----------9/7/555555----------------------------------|
d|-55555555-55555555-55555555-9/7/555555----------------------------------|
a|-55555555-33333333-55555555-7/5/333333----------------------------------|
e|-33333333----------33333333---------------------------------------------|

Pre-chorus

e|------------------------------------------------------------------------|
b|------------------------------------------------------------------------|
g|----------5~------------------------------------------------------------|
d|-7~-5~-7~-5~------------------------------------------------------------|
a|-7~-5~-7~-3~------------------------------------------------------------|
e|-5~-3~-5~---------------------------------------------------------------|

Chorus

e|------------------------------------------------------------------------|
b|------------------------------------------------------------------------|
g|----------55555555-77777777-55555555------------------------------------|
d|-55555555-55555555-77777777-55555555------------------------------------|
a|-55555555-33333333-55555555-33333333------------------------------------|
e|-33333333---------------------------------------------------------------|

solo

e|------------------------------------------------------------------------|
b|------------------------------------------------------------------------|
g|-99999999-55555555-9/11/12/14/12/10/77777777----------------------------|
d|-99999999-55555555-x-x--x--x--x--x--77777777----------------------------|
a|-77777777-33333333-7/9/ 10/12/10/9 /55555555----------------------------|
e|------------------------------------------------------------------------|

Chorus

e|------------------------------------------------------------------------|
b|------------------------------------------------------------------------|
g|----------55555555-77777777-55555555------------------------------------|
d|-55555555-55555555-77777777-55555555------------------------------------|
a|-55555555-33333333-55555555-33333333------------------------------------|
e|-33333333---------------------------------------------------------------|

Pre-chorus

e|------------------------------------------------------------------------|
b|------------------------------------------------------------------------|
g|----------5~------------------------------------------------------------|
d|-7~-5~-7~-5~------------------------------------------------------------|
a|-7~-5~-7~-3~------------------------------------------------------------|
e|-5~-3~-5~---------------------------------------------------------------|

Chorus

e|------------------------------------------------------------------------|
b|------------------------------------------------------------------------|
g|----------55555555-77777777-55555555------------------------------------|
d|-55555555-55555555-77777777-55555555------------------------------------|
a|-55555555-33333333-55555555-33333333------------------------------------|
e|-33333333---------------------------------------------------------------|

outro

e|------------------------------------------------------------------------|
b|------------------------------------------------------------------------|
g|------------------------------------------------------------------------|
d|-5~---------------------------------------------------------------------|
a|-5~---------------------------------------------------------------------|
e|-3~---------------------------------------------------------------------|
Tap to rate this tab
 
# A B C D E F G H I J K L M N O P Q R S T U V W X Y Z