Song name
# A B C D E F G H I J K L M N O P Q R S T U V W X Y Z

Face To Face - Velocity tab

Artist: Face to Face
Song: Velocity
Tabbed by: p_irving

This is how i play it and it sounds good.
If your just learning then this song is for you cause its basic rythme
guitaring so you can really get into the song and pump up!


Intro. The first 2 are played twice.
e|--------------------------------------|
B|--------------------------------------|
G|-XX-7~-----XX-5~-----XX-9~-----XX-7~--|
D|-XX-7~-----XX-5~-----XX-9~-----XX-7~--|
A|-XX-5~-----XX-3~-----XX-7~-----XX-5~--|
E|--------------------------------------|


Verse(Part 1)
e|-------------------------------------------------------------------------|
B|-------------------------------------------------------------------------|
G|--7-77777777777777-------------------------------------------------------|
D|--7-77777777777777--5-55555555555555--9-99999999999999--5-55555555555555-|
A|--5-55555555555555--5-55555555555555--9-99999999999999--5-55555555555555-|
E|--------------------3-33333333333333--7-77777777777777--3-33333333333333-|

Verse(Part 2)
e|-------------------------------------------------------------------------|
B|-------------------------------------------------------------------------|
G|--7-77777777777777-------------------------------------------------------|
D|--7-77777777777777--7-77777777777777--9-99999999999999--5-55555555555555-|
A|--5-55555555555555--7-77777777777777--9-99999999999999--5-55555555555555-|
E|--------------------5-55555555555555--7-77777777777777--3-33333333333333-|

Bridge.
e|------------------------------------------------------|
B|------------------------------------------------------|
G|--------------------14-141414141414--12-121212121212--|
D|--7-77777777777777--14-141414141414--12-121212121212--|
A|--7-77777777777777--12-121212121212--10-101010101010--|
E|--5-55555555555555------------------------------------|


Play Verse Part 1, 2 times then this riff below 2 times. 

Verse (part 3) (each chord is played 14 times)
e|----------------------|
B|----------------------|
G|---7---14---11---12---|
D|---7---14---11---12---|
A|----------------------|
E|----------------------|

Bridge x2

Verse(part 1) x2


e|--------------------------------------------------|
B|--------------------------------------------------|
G|--9-9-999--12-1212-12121212--7-7-777--------------|
D|--9-9-999--12-1212-12121212--7-7-777---7-77-7777--|
A|--7-7-777--10-1010-10101010--5-5-555---7-77-7777--|
E|---------------------------------------5-55-5555--|


e|--------------------------------|
B|--------------------------------|
G|---7~---------XX-7~-----XX-5~---|
D|---7~---------XX-7~-----XX-5~---|
A|---5~---------XX-5~-----XX-3~---|
E|--------------------------------|

Verse (Part 2)

e|-------------------------------------------------------------------------|
B|-------------------------------------------------------------------------|
G|-------------------------------------------------------------------------|
D|--2-22222222222222--5-55555555555555--9-99999999999999--7-77777777777777-|
A|--2-22222222222222--5-55555555555555--9-99999999999999--7-77777777777777-|
E|--0-00000000000000--3-33333333333333--7-77777777777777--5-55555555555555-|

e|------------------------------|
B|------------------------------|
G|------------------------------|
D|--5-55555555555555555555555p--|
A|--5-55555555555555555555555p--|
E|--3-33333333333333333333333p--|


Verse (Part 1) X2

Thats it! Easy to play






Tap to rate this tab
# A B C D E F G H I J K L M N O P Q R S T U V W X Y Z