Guitaretab - guitar tabs
Song name
# A B C D E F G H I J K L M N O P Q R S T U V W X Y Z

Faces - Miss Judys Farm tab

---------------------------------------
     Miss Judyís Farm - Faces
---------------------------------------

Tuning: standard

It isnít perfect and is a bit of a working project but seeing as there are no tabs 
for this, it should give you an idea!
Please leave comments and corrections etc and iíll be happy to change it!

Intro:
e|-this isnít too accurate but if you listen to the track you can get it--|
B|------------------------------------------------------------------------|
G|------------------------------------------------------------------------|
D|--10h12-10-12-12-12-12-xx-10-12-10-12-10-12-xx-----10-12-10-12ó---------|
A|--10h12-10-12-12-12-12-xx-10-12-10-12-10-12-xxóX3--10-12-10-12----------|
E|--10-10-10-10-10-10-10-xx-10-10-10-10-10-10-xx-----10-10-10-10----------|
p.m       *  *     *        *  *  *

e|--------------------------------|
B|--------------------------------|
G|--------------------------------|
D|--------------------------------|
A|--11h12p11h12-11h12p11h12-------|
E|--------------------------------|

e|------------------------------------------------------------------------|
B|------------------------------------------------------------------------|
G|-------10-12----------------10-12-------------------10-12---------------|
D|-------10-12-10-12v---------10-12---------X2--------10-12---------------|
A|-10h12----------------10h12-------8-----------10h12-------8-8h10p8------|
E|------------------------------------10v-----------------------------10v-|
[ Tab from: http://www.guitaretab.com/f/faces/99373.html ]
e|-----------------------------------------------------------------------|
B|-----------------------------------------------------------------------|
G|--------10-12---------------10-12-------------------12b13-12p10--------|
D|--------10-12---------------10-12-------------------------------12v----|
A|--10h12-------10b------10h12-------8-8h10p8----------------------------|
E|-----------------10v------------------------10v------------------------|

Verse:
e|---------------------------|
B|-------1010----------------|
G|-------1010----------------|
D|-10h12---------------------|
A|-10h12------12-14-12-------|
E|------------10-10-10-------|
           p.m*  *
thereís a bit of variation but these 2 parts are what itís based on

e|---------------------------------------------|
B|---------------------------------------------|
G|-----------------------------12b13-12-10-----|
D|------------------------------------------12-|
A|--12-14-12ó-a few times---12-----------------|
E|--10-10-10----------------10-----------------|


Bridge/Interlude bit
e|-------------------------|
B|-------------------------|
G|-------------------------|
D|-15-14-12-10-1212-10-12--|
A|-------------------------|
E|-------------------------|


e|------|
B|--12--|
G|--12--|
D|------|
A|------|
E|------|
strummed a few times with the odd bend, again if you listen to the track you can tell where

e|---------------------------------------------------------------|
B|---------------------------------------------------------------|
G|---12b13-12b13 12p10-------------------------------------------|
D|---------------------12-12121212--121212121212121212121212-----|
A|------------------------10101010--101010101010101010101010-----|
E|---------------------------------------------------------------|
                                p.m * * * * * * * *     *
again listen to track to get exactly right

e|-----------------------------------------|
B|-----------------------------------------|
G|-----------------------------------------|
D|--------15-14-1212-------1212----12------|
A|--12-12-12-12-1212-12h14-1212-14-12------|
E|--10-10-10-10-1010-10----1010-10-10------|
p.m       *******    *******

gradually gets faster and has no palm muting

thatís about it! cheers
Related for Miss Judys Farm tab