Song name
# A B C D E F G H I J K L M N O P Q R S T U V W X Y Z

Faces - Silicon Grown tab

Help us improve GuitareTab! Take a short survey!
SILICON GROWN
(R.Wood-R.Stewart)

RIFF (1st half)

--------------------------------------------------
--------------------------------------------------
---2-2---2--(5)-----(4)---------------------------
---2---------5-(2)---4-(2)---2--------------------
-0-----0---0------0-------0----3(1/2up)-0---------
--------------------------------------------------

RIFF (2nd half)

--------------------------------------------------
--------------------------------------------------
---2-2---2--(5)-(4)(4)----------------------------
---2---------5---4--4--2--------------------------
-0-----0---0---0---------3(1/2up)-0---------------
--------------------------------------------------

A (RIFF)          
Wait a minute honey
I don't think the joke's too funny
I stayed up all night
Checking out the doctor's guide

A (RIFF)
Wait a minute honey
Stop pretending you're a bunny
Well I might've guessed 
You been to see a specialist.

F#m
I remember you said 
        (B)                   F#m
That we gotta keep abreast of time
A (RIFF)
But obviously you don't know where to draw the line

...
Related for Silicon Grown tab