Guitaretab - guitar tabs
Song name
# A B C D E F G H I J K L M N O P Q R S T U V W X Y Z

Faces - Sweet Little Rock N Roller tab

Sweet Little Rock & Roller - The Faces

Chuck Berry Cover, Tabbed by Thomas Kingsley


Verses
		2x            2x	     4x
e|--------------|--------------|--------------|
B|--------------|--------------|--------------|
G|--------------|--5--5--7--5--|--------------|
D|--5--5--7--5--|--3--3--3--3--|--5--5--7--5--|
A|--3--3--3--3--|--------------|--3--3--3--3--|
E|--------------|--------------|--------------|
    C		   F		  C
    Nineteen years old....


	       4x	      4x
E|--------------|--------------|
B|--------------|--------------|
G|--5--5--7--5--|--------------|
D|--3--3--3--3--|--5--5--7--5--|
A|--------------|--3--3--3--3--|
E|--------------|--------------|
    F		   C
		      
 
               2x	       2x	      4x
E|--------------|--------------|--------------|
B|--------------|--------------|--------------|
G|--7--7--9--7--|--5--5--7--5--|--------------|
D|--5--5--5--5--|--3--3--3--3--|--5--5--7--5--|
A|--------------|--------------|--3--3--3--3--|
E|--------------|--------------|--------------|
    G		   F		  C

[ Tab from: http://www.guitaretab.com/f/faces/113148.html ]
Chorus
		8x	      4x	     4x
e|--------------|--------------|--------------|
B|--------------|--------------|--------------|
G|--------------|--5--5--7--5--|--------------|
D|--5--5--7--5--|--3--3--3--3--|--5--5--7--5--|
A|--3--3--3--3--|--------------|--3--3--3--3--|
E|--------------|--------------|--------------|
    C              F              C		
    Sweet little rock...


		4x	      4x		    
e|--------------|--------------|
B|--------------|--------------|
G|--7--7--9--7--|--------------|
D|--5--5--5--5--|--5--5--5--5--|
A|--------------|--3--3--3--3--|
E|--------------|--------------|
    G              C

Fills

e|--8--|--13--|--15--|
B|--8--|--13--|--15--|
G|-----|------|------|
D|-----|------|------|
A|-----|------|------|
E|-----|------|------|
   C      F      G


Lyrics

Nineteen years old and as sweet as she could be
All dressed up like a downtown christmas tree
Dancin and hummin a rock n roll melody
Shes the daughter of a well respected man
Who taught her how to jerk and understand
Then she became a rock n roll music fan

Sweet little rock n roller, sweet little rock n roller
Her daddy doesnt have to scold her
Her partner cant hardly hold her
Because she never gets any older
Sweet little rock n roller

Shoulda seen her eyes when the band began to play
And the famous singer sang and bowed away
When the stars were gone she screamed and yelled hurray
Ten thousand eyes were watchin them leave the floor
Five thousand tongues are screaming out more and more
About fifteen hundred waiting outside the door

Sweet little rock n roller, sweet little rock n roller
Her daddy doesnt have to scold her
Her partner cant hardly hold her
Because she never gets any older
Sweet little rock n roller
Related for Sweet Little Rock N Roller tab