Guitaretab - guitar tabs
Song name
# A B C D E F G H I J K L M N O P Q R S T U V W X Y Z
Home / F / Faction / Demons tab

Faction - Demons tab

THE FACTION - DEMONS
 tabbed by Jori Apedaile

Normal Tuning (E A D G B e)
 
Verse (the song starts with the verse chords below)
(Play Slowly)
e ------------------------------------------------------------------
B ------------------------------------------------------------------
G ------------------------------------------------------------------
D 7--5--8--------------------------7--5--8--------------------------  x4
A 5--3--6--x5-x5-x5-x5-x5-x5-x5-x5-5--3--6--x7-x7-x7-x7-x7-x7-x7-x7-
E ---------x3-x3-x3-x3-x3-x3-x3-x3----------x5-x5-x5-x5-x5-x5-x5-x5-



Chorus (play faster)

e ----------------
B ----------------
G --------8-------
D 5--5--5-6-8--8--  x4
E 3--3--3---6--6--
[ Tab from: http://www.guitaretab.com/f/faction/131204.html ]
the 4th time  add this
e ---------------------------------------------
B ---------------------------------------------
G ---------------------------------------------
D ---------------------------------------------
A x10-x10-x10-x10-x10-x10-x10-x10-x10-\\\\\\\\-
E x8--x8--x8--x8--x8--x8--x8--x8--x8--\\\\\\\\-

repeat the chorus

then a really long pick slide like this
e --------------------------------------------------------------
B --------------------------------------------------------------
G --------------------------------------------------------------
D --------------------------------------------------------------
A \\\\\\\\\\\\\\\\\\\\\\\\\\\\\\\\\\\\\\\\\\\\\\\\\\\\\\\\\\\\\\
E \\\\\\\\\\\\\\\\\\\\\\\\\\\\\\\\\\\\\\\\\\\\\\\\\\\\\\\\\\\\\\

then repeat the chorus without the long pick slide

after that do the verse and the chorus(without the loooong pick slide),take a short pause
(like a half rest),then do the chorus without the long pick slide then you've just played
DEMONS by THE FACTION. Have fun!


Any questions or problems? E-mail me at apedailejw@gaggle.net
Related for Demons tab