Song name
# A B C D E F G H I J K L M N O P Q R S T U V W X Y Z

Fair To Midland - Dance Of The Manatee tab

E-------------------------------------------------------------------------|
B------------9-9-9-9-9-9-8-8-4-----------9-9-8-8-4-6-9-8-6----------------|
G------------8-8-8-8-8-8-7-7-3-----------8-8-7-7-3-5-8-7-5----------------|
D-------------------------------------------------------------------------|
A---5-10-1-8--------------------5-10-1-8--------------------5-10-1-8------|
E---5-10-1-8--------------------5-10-1-8--------------------5-10-1-8------|


E---------------------------------------------------------------------------|
B---9-9-9-9-9-9-8-8-11-11-11-11-11-----------9-9-8-8-4-6-9-8-6--------------|
G---8-8-8-8-8-8-7-7-10-10-10-10-10-----------8-8-7-7-3-5-8-7-5--------------|
D---------------------------------------------------------------------------|
A-----------------------------------5-10-1-8--------------------------------|
E-----------------------------------5-10-1-8--------------------------------|

                        Darroh Starts Singing

E--6-6-6-6-6-6---------------------------------------------------|
B--4-4-4-4-4-4---------------------------------------------------|
G--------------6-6-6-4-4-4-6-6-6-6-------------------------------| Keep Going
D--------------3-3-3-1-1-1-3-3-3-3-------------------------------| Until The
A----------------------------------------------------------------|           Chorus
E----------------------------------------------------------------|

                        Chorus

E----------------------------------------------------------------------|
B----------------------------------------------------------------------|
G----------------------------------------------------------------------|
D---------------------------3-3-3-3-3-5-5-5-5-5------------------------| x2
A--5-5-5-5-5-10-10-10-10-10-1-1-1-1-1-3-3-3-3-3------------------------|
E--5-5-5-5-5-10-10-10-10-10--------------------------------------------|

                 Thats All I Know
Have Fun!
Tap to rate this tab
# A B C D E F G H I J K L M N O P Q R S T U V W X Y Z