Song name
# A B C D E F G H I J K L M N O P Q R S T U V W X Y Z

Faith No More - Malpractice tab

E|------------------|------------------|---|---|---||-------------------|
B|------------------|------------------|---|---|---||*------------------|
G|------------------|------------------|-%-|-%-|-%-||-------------------|
D|------------------|------------------|---|---|---||-------------------|
A|----------6-6-6-6-|-5--2--2--6-6-6-6-|---|---|---||*-5--6--9--3-3-3-3-|
E|----------4-4-4-4-|-3--0--0--4-4-4-4-|---|---|---||--3--4--7--1-1-1-1-|

play 8x

E--||-||------------||-||--------------|---|--------------|--------------|
B-*||-||*----------*||-||*-------------|---|--------------|--------------|
G--||-||------------||-||--------------|-%-|--------------|--------------|
D--||-||------------||-||--------------|---|--------------|--------------|
A-*||-||*-5--6-3-3-*||-||*-5--6--2-2-2-|---|-5--6--910-4-|-5--6--3-3-3---|
E--||-||--3--4-1-1--||-||--3--4--0-0-0-|---|-3--4--7-8-2-|-3--4--1-1-1---|

E-|--------------|---|---|--------------||-------------|---|---|---|-||---|
B-|--------------|---|---|-------------*||-------------|---|---|---|-||*--|
G-|--------------|-%-|-%-|--------------||-------------|-%-|-%-|-%-|-||---|
D-|--------------|---|---|--------------||-------------|---|---|---|-||---|
A-|-5--6--910-4-|---|---|-5--6--3-3-3-*||-5--6--2-2-2-|---|---|---|-||*---|
E-|-3--4--7-8-2-|---|---|-3--4--1-1-1--||-3--4--0-0-0-|---|---|---|-||----|

                                               play 8x        play 6x

E|-----|-----|-----|----------||-||------------||-||-----------|-|
B|-----|-----|-----|---------*||-||*----------*||-||*---------*|-|
G|-----|-----|-----|----------||-||------------||-||-----------|-|
D|-5---|-8---|-4---|----------||-||------------||-||--5-9-3-2--|-|
A|-5---|-6---|-2---|---------*||-||*-5--6-3-3-*||-||*-3-7-1-0-*|-|
E|-3---|-6---|-2---|--/6-5-2--||-||--3--4-1-1--||-||-----------|-|
Tap to rate this tab
# A B C D E F G H I J K L M N O P Q R S T U V W X Y Z