Guitaretab - guitar tabs
Song name
# A B C D E F G H I J K L M N O P Q R S T U V W X Y Z

Farben Lehre - Matura tab

FARBEN LEHRE - "Matura"

Intro\Główny Rif
------------------------------|
------------------------------|
--------------------9---------|
-x-x-7-7-x-x-7-7--9-9-x-x-5-5-|
-x-x-7-7-x-x-7-7--7-7-x-x-5-5-|
-x-x-5-5-x-x-5-5--0---x-x-3-3-|

Zwrotka
-----------------------------------|
-----------------------------------|
---------x-x-5-5-x-x-9-9-x-x-12-12-|
-x-x-7-7-x-x-5-5-x-x-9-9-x-x-12-12-|
-x-x-7-7-x-x-3-3-x-x-7-7-x-x-10-10-|
-x-x-5-5---------------------------|

Refren
-----------------------------------------------------|
-----------------------------------------------------|
-5--5-5--5-5-----------------------------------------|
-5--5-5--5-5--5--5-5--5-5-7--7-7--7-7--5\7--7-7--7-7-|
-3--3-3--3-3--5--5-5--5-5-7--7-7--7-7--5\7--7-7--7-7-|
--------------3--3-3--3-3-5--5-5--5-5--3\5--5-5--5-5-|
[ Tab from: http://www.guitaretab.com/f/farben-lehre/99388.html ]
------------------------------------------------------|
------------------------------------------------------|
-5--5-5--5-5------------------------------------------|
-5--5-5--5-5--5--5-5--5-5-7--7-7--7-7-x-x-x-x-x-x-x-x-|
-3--3-3--3-3--5--5-5--5-5-7--7-7--7-7-x-x-x-x-x-x-x-x-|
--------------3--3-3--3-3-5--5-5--5-5-x-x-x-x-x-x-x-x-|

Solo
1.
------------------------------------|
--5---5--5---5--5---5--5--5--5--8---|
--7b--7b-7b--7b-7b--7b-7b-7b-7b---5-|
------------------------------------|
------------------------------------|
------------------------------------|

2.
-----------------------|
-----------------------|
-14-12--9-9-x----------|
-14-12--9-9-x-10-12-12-|
--------------10-12-12-|
-----------------------|

Solo wg schematu: 1,1,1,1,2,2,2,2

Przejście ("I warto...")
---------------------|
---------------------|
-5-----------------4-|
-5---5---7---7---7-4-|
-3---5---7---7---7-2-|
-----3---5---5---5---|

Outro
---------|
---------|
---------|
-2--5--7-|
-2--5--7-|
-0--3--5-|