Guitaretab - guitar tabs
Song name
# A B C D E F G H I J K L M N O P Q R S T U V W X Y Z

Farris Dionne - I Know tab

I Know (Electric)
Desperation Band

Intro
A   A
A   D   C   A   C  D
A   D   C   A   C  D    A   A

Verse 1 (Just Bass and Drums)
A
Whatever occurs I know
You carried the cross for my soul
F#m
You bled for my sin beginning
D            D            D
Life for all hope for all joy for all unspeakable

Brake
A D C A C D
[ Tab from: http://www.guitaretab.com/f/farris-dionne/6315.html ]
Verse 2 (Play Riff)
Whatever the day we know
You conquered the grave saved the world
Now that we're free believing
What we know who we know
Is the truth so here we go
Chorus
A                E
I know I know I know I know
              F#m
You turned the world around
    D                F#m
Now I have found the way
    E           D    E  F#m A    D E F#m A
That can't be shaken
I know I know I know I know
You turned it upside down
Now I have found the life
    E             D   E F#m A
That can't be shaken
       D
And I stand on what I know

Brake

Verse 2

Chorus

Bridge (4x)
D            A
D
It's true so I believe it
                                  A
It's true so I believe in You

Brake 2 (2x Just drums)
I know I know I know I know (Echo)

Chorus

Ending
A  D C   A C D


(Riff for Verse 2)
-9--9--9--9--9--9--10-9-----|
--10-10-10-10-10-10---------|
----------------------------|rpt 2x
----------------------------|
----------------------------|
----------------------------|

-9--9--9--9--9--9-----------|
--10-10-10-10-10-10s--------|
----------------------------|
----------------------------|
----------------------------|
----------------------------|