Song name
# A B C D E F G H I J K L M N O P Q R S T U V W X Y Z

Faster Pussycat - Babylon tab

Babylon By Faster Pussycat

This song is real easy to play..Only two riffs in the whole song..
Verse riff is played with slight variations thoughout..

     Intro and verse and solo backing riff
||----------------------------------------------------------------------|
||----------------------------------------------------------------------|
||*--------------------2-----4--4-----2--2------------------------------|
||*-----------2--------2-----4--4--5--2--2--5--2--x--x--x--x--2--2------|
||------------2--------0-----2--2--5--0--0--5--2--x--x--x--x--2--2------|
||---0--3--0--0--3--0-----0--------3--------3--0--x--x--x--x--0--0------|


 Chorus riff
|---------------------------------------|--------------------------------|
|---------------------------------------|--------------------------------|
|7--------------------------------------|--------------------------------|
|7--9-----------2~~~--------------2~~~--|--------------------------------|
|5--9-----------------------------------|--------------------------------|
|---7--0--3--0--------0--0--3--0--------|--------------------------------|
Tap to rate this tab
# A B C D E F G H I J K L M N O P Q R S T U V W X Y Z