Guitaretab - guitar tabs
Song name
# A B C D E F G H I J K L M N O P Q R S T U V W X Y Z

Faster Pussycat - Bathroom Wall tab

Bathroom Wall (Intro) ~ The Faster Pussycat

	This is the intro to Bathroom Wall by the Faster Pussycat. I am currently working on 
the entire song, but this should satisfy those who donít want to rely on a one-starred tab 
Enjoy!

Legend:

Vibrato = v
Sustain = ~
Slide up = /
Slide down = \
Hammer-on = h
Pull-off = p
Bend = b
Pre-bent note = (note)
X = palm-mute

E|----------------------------------| |--------------------------------------|
B|----------------------------------| |--------------------------------------|
G|14b16--(16)r14-12-14b16--r14-12~~~|4|7-7--9-7-9-7-5-5--7-5-7-5-------------|
D|----------------------------------|x|7-7--9-7-9-7-5-5--7-5-7-5-5-5-7-5-7-5-|
A|----------------------------------| |5-5--5-5-5-5-3-3--3-3-3-3-5-5-7-5-7-5-|
E|----------------------------------| |--------------------------3-3-3-3-3-3-|
[ Tab from: http://www.guitaretab.com/f/faster-pussycat/56674.html ]
E|---------------|----------------------------------------------------|
B|---------------|----------------------------------------------------|
G|---------------|15p14p12--------15p14p12--------15p14p12---12-12-12~|
D|--5-7--7-5~~x-5|--------15p14p12--------15p15p12--------15-12-12-12~|
A|--5-7--7-5~~x-5|----------------------------------------------------|
E|--3-3--3-3~~x-3|----------------------------------------------------|

E|------------------------------------------------|---------------|9/11-9--|
B|------------------------------------------------|---------------|--------|
G|15p14p12--------15p14p12------------12--12-12-12|6b7~~7777r6-4~~|--------|
D|--------15p14p12--------15p15p12-15-12--12-12-12|---------------|--------|
A|------------------------------------------------|---------------|--------|
E|------------------------------------------------|---------------|--------|
					(Not sure on this part)
E|7p4----------|----------------|-------10-------------------------10--------|
B|---7p4-------|14--------------|11b12-----12-10-------------10/12----12-----|
G|------7p6p4--|14------15------|----------------12-10-10-12-------------12--|v
D|-----------6~|12-14v--15-14v--|--------------------------------------------|
A|-------------|----------------|--------------------------------------------|
E|-------------|----------------|--------------------------------------------|


	There you go! Iíll be finishing the full-version soon, so comment if you see any errors 
the end). This is just on the border between novice and intermediate, so it shouldnít 
too difficult to learn.
Related for Bathroom Wall tab