Song name
# A B C D E F G H I J K L M N O P Q R S T U V W X Y Z

Fatso Jetson - Graffiti In Space tab

Graffiti in Space by Fatso Jetson.
This song is from the album "Flames for All".
I've tabbed this the way I play it, but once you know how to play it,
it is a very cool song to jam/improvise to.
Listen to the song to understand the rhythm and timing of the notes used.
This is played in Drop D tuning.



e|------------------------------------------------------|
B|----10---7-5--------------------------5----0----------|
G|-7---------7b-----------------5-----0--------7b-------|
D|---------------------11-----0---7b------7b------------|
A|-----------------0-0----10\---------------------------|
D|------------------------------------------------------|

e|--------------------------------------------------------------|
B|---------------------5----0-7b----------------------5----0-7b-|
G|--------------5----0---7b--------------------5----0---7b------|
D|-----11-----0---7b------------------11-----0---7b-------------|
A|-0-0----10\---------------------0-0----10\--------------------|
D|--------------------------------------------------------------|

e|---------------------------------------------------------------|
B|---------------------5----0-7b-7b------------------------------|
G|--------------5----0---7b---------4h6b--4h6-4------------------|
D|-----11-----0---7b----------------------------5-7-5h7p5--------|
A|-0-0----10\---------------------------------------------5-7-/\-|
D|---------------------------------------------------------------|

e|--------------------------------------------------------------|
B|---------------------5----0-7b----------------------5----0-7b-|
G|--------------5----0---7b--------------------5----0---7b------|
D|-----11-----0---7b------------------11-----0---7b-------------|
A|-0-0----10\---------------------0-0----10\--------------------|
D|--------------------------------------------------------------|

e|--------------------------------------------------------------|
B|---------------------5----0-7b----------------------5----0-7b-|
G|--------------5----0---7b--------------------5----0---7b------|
D|-----11-----0---7b------------------11-----0---7b-------------|
A|-0-0----10\---------------------0-0----10\--------------------|
D|--------------------------------------------------------------|

e|--------------------------------------------------------------|
B|---------------------5----0-7b----------------------5-5-5-5---|
G|--------------5----0---7b--------------------5----0-7b7b7b7b--|
D|-----11-----0---7b------------------11-----0---7b-------------|
A|-0-0----10\---------------------0-0----10\--------------------|
D|--------------------------------------------------------------|

e|---------------------------------------------------------------|
B|---------------------------------------------------------------|
G|---------------------------------------------------------------|
D|-----11-------5-------------5-------11-------5-------------5---|
A|-0-0----10\-0---3----5--------7-0-0----10\-0---3----5--------7-|
D|-------------------0---3--0-----------------------0---3--0-----|

e|---------------------------------------------------------------|
B|---------------------------------------------------------------|
G|---------------------------------------------------------------|
D|-----11-------5-------------5-------11-------5-------------5---|
A|-0-0----10\-0---3----5--------7-0-0----10\-0---3----5--------7-|
D|-------------------0---3--0-----------------------0---3--0-----|

e|--------------------------------------------------------------|
B|---------------------5----0-7b----------------------5----0-7b-|
G|--------------5----0---7b--------------------5----0---7b------|
D|-----11-----0---7b------------------11-----0---7b-------------|
A|-0-0----10\---------------------0-0----10\--------------------|
D|--------------------------------------------------------------|

e|-----------------------------------------------------------------|
B|---------------------5----0-7b-----------------------------------|
G|--------------5----0---7b------5-7p5---5----------------4-6-4-8b-|
D|-----11-----0---7b-------------------7---7-5-7------5-7----------|
A|-0-0----10\-------------------------------------5-7--------------|
D|-----------------------------------------------------------------|

e|--------------------------------------------------------------------------|
B|------------------------------------9-9b--5h7p5---------------------------|
G|-88888-8b-8b-8b-8b-8b-8b-8b-8b8b8v--------------5bv-----------------------|
D|-----------------------------------------------------7-77-5-7-5-----------|
A|----------------------------------------------------------------7-777777\-|
D|--------------------------------------------------------------------------|

e|--------------------------------------------------------------|
B|---------------------5----0-7b----------------------5----0-7b-|
G|--------------5----0---7b--------------------5----0---7b------|
D|-----11-----0---7b------------------11-----0---7b-------------|
A|-0-0----10\---------------------0-0----10\--------------------|
D|--------------------------------------------------------------|

e|--------------------------------------------------------------|
B|---------------------5----0-7b----------------------5-5-5-5---|
G|--------------5----0---7b--------------------5----0-7b7b7b7b--|
D|-----11-----0---7b------------------11-----0---7b-------------|
A|-0-0----10\---------------------0-0----10\--------------------|
D|--------------------------------------------------------------|

e|---------------------------------------------------------------|
B|---------------------------------------------------------------|
G|---------------------------------------------------------------|
D|-----11-------5-------------5-------11-------5-------------5---|
A|-0-0----10\-0---3----5--------7-0-0----10\-0---3----5--------7-|
D|-------------------0---3--0-----------------------0---3--0-----|

e|---------------------------------------------------------------|
B|---------------------------------------------------------------|
G|---------------------------------------------------------------|
D|-----11-------5-------------5-------11-------5-------------5---|
A|-0-0----10\-0---3----5--------7-0-0----10\-0---3----5--------7-|
D|-------------------0---3--0-----------------------0---3--0-----|

e|------------------------------------------------------|
B|------------------------------------------------------|
G|------------------------------------------------------|
D|------------------------------------------------------|
A|-------3-----3-----3----------------------------------|
D|-0-0-0---0-0---0-0---0-1-0----------------------------|

  Guitar 1                      Guitar 2               Or this sounds cool
e|-----------------------------|----------------------|------------------|
B|-----------------------------|-10-10-10-7-9-9\-2-3v-|-7-7-7-3-5-0-2-3v-|
G|-----------------------------|----------------------|------------------|
D|-------0-----0----0---3-3----|----------------------|------------------|
A|-----2-----2----2---2--------|----------------------|------------------|
D|-2-2-----2----2--------------|----------------------|------------------|

e|------------------------------------------------------|
B|------------------------------------------------------|
G|------------------------------------------------------|
D|------------------------------------------------------|
A|-------3-----3-----3----------------------------------|
D|-0-0-0---0-0---0-0---0-1-0----------------------------|

  Guitar 1                      Guitar 2               Or this sounds cool
e|-----------------------------|----------------------|------------------|
B|-----------------------------|-10-10-10-7-9-9\-2-3v-|-7-7-7-3-5-0-2-3v-|
G|-----------------------------|----------------------|------------------|
D|-------0-----0----0---3-3----|----------------------|------------------|
A|-----2-----2----2---2--------|----------------------|------------------|
D|-2-2-----2----2--------------|----------------------|------------------|

e|------------------------------------------------------|
B|------------------------------------------------------|
G|------------------------------------------------------|
D|------------------------------------------------------|
A|-------3-----3-----3----------------------------------|
D|-0-0-0---0-0---0-0---0-1-0----------------------------|

  Guitar 1                      Guitar 2               Or this sounds cool
e|-----------------------------|----------------------|------------------|
B|-----------------------------|-10-10-10-7-9-9\-2-3v-|-7-7-7-3-5-0-2-3v-|
G|-----------------------------|----------------------|------------------|
D|-------0-----0----0---3-3----|----------------------|------------------|
A|-----2-----2----2---2--------|----------------------|------------------|
D|-2-2-----2----2--------------|----------------------|------------------|

  Guitar 1                      Guitar 2               Or this sounds cool
e|-----------------------------|----------------------|-------------------|
B|-----------------------------|-10-10-10-7-9-9\-2-3v-|-7-7-7-3-5-0-2-3v--|
G|-----------------------------|----------------------|-------------------|
D|-----------------------------|----------------------|-------------------|
A|-------3-----3-----3---------|----------------------|-------------------|
D|-0-0-0---0-0---0-0---0-1-0---|----------------------|-------------------|

  Guitar 1                      Guitar 2               Or this sounds cool
e|-----------------------------|----------------------|------------------|
B|-----------------------------|-10-10-10-7-9-9\-2-3v-|-7-7-7-3-5-0-2-3v-|
G|-----------------------------|----------------------|------------------|
D|-------0-----0----0---3-3----|----------------------|------------------|
A|-----2-----2----2---2-----0--|----------------------|------------------|
D|-2-2-----2----2--------------|----------------------|------------------|

e|--------------------------------------------------------------|
B|---------------------5----0-7b----------------------5----0-7b-|
G|--------------5----0---7b--------------------5----0---7b------|
D|-----11-----0---7b------------------11-----0---7b-------------|
A|-0-0----10\---------------------0-0----10\--------------------|
D|--------------------------------------------------------------|

e|--------------------------------------------------------------|
B|---------------------5----0-7b----------------------5-5-5-5---|
G|--------------5----0---7b--------------------5----0-7b7b7b7b--|
D|-----11-----0---7b------------------11-----0---7b-------------|
A|-0-0----10\---------------------0-0----10\--------------------|
D|--------------------------------------------------------------|

e|---------------------------------------------------------------|
B|---------------------------------------------------------------|
G|---------------------------------------------------------------|
D|-----11-------5-------------5-------11-------5-------------5---|
A|-0-0----10\-0---3----5--------7-0-0----10\-0---3----5--------7-|
D|-------------------0---3--0-----------------------0---3--0-----|

e|---------------------------------------------------------------|
B|---------------------------------------------------------------|
G|---------------------------------------------------------------|
D|-----11-------5-------------5-------11-------5-------------5---|
A|-0-0----10\-0---3----5--------7-0-0----10\-0---3----5--------7-|
D|-------------------0---3--0-----------------------0---3--0-----|

e|------------------------------------------------------|
B|------------------------------------------------------|
G|------------------------------------------------------|
D|-77777777777777777777777777777777-5555555555555555----|
A|-77777777777777777777777777777777-5555555555555555----|
D|-77777777777777777777777777777777-5555555555555555----|

e|------------------------------------------------------|
B|------------------------------------------------------| 
G|------------------------------------------------------|
D|-10101010101010101010101010101010---------------------| This is the 10th fret 
A|-10101010101010101010101010101010---------------------| strummed 16 times
D|-10101010101010101010101010101010---------------------|

e|-----------------------------9-9b--------------------------------|
B|--------------------------8-------8-8-88v--7-77-8-7-55\3-3\2-2/3-|
G|-5---5h7-7bp5---5---5-7/9----------------------------------------|
D|---7----------7---7----------------------------------------------|
A|-----------------------------------------------------------------|
D|-----------------------------------------------------------------|

e|------------------------------------------------------|
B|-3/5-55/7-7-7b75--------------------------------------|
G|-----------------7v--7bp5---5-------------------------|
D|--------------------------7---7-5h7p5--------5--------|
A|--------------------------------------7-5--7---7------|
D|------------------------------------------------------|

e|--------------------------------------------------------------|
B|---------------------5----0-7b----------------------5----0-7b-|
G|--------------5----0---7b--------------------5----0---7b------|
D|-----11-----0---7b------------------11-----0---7b-------------|
A|-0-0----10\---------------------0-0----10\--------------------|
D|--------------------------------------------------------------|

e|--------------------------------------------------------------|
B|---------------------5----0-7b----------------------5----0-7b-|
G|--------------5----0---7b--------------------5----0---7b------|
D|-----11-----0---7b------------------11-----0---7b-------------|
A|-0-0----10\---------------------0-0----10\--------------------|
D|--------------------------------------------------------------|

e|-------------------------------|
B|---------------------5-5-5-5---|
G|--------------5----0-7b7b7b7b--|
D|-----11-----0---7b-------------|
A|-0-0----10\--------------------|
D|-------------------------------|

e|---------------------------------------------------------------|
B|---------------------------------------------------------------|
G|---------------------------------------------------------------|
D|-----11-------5-------------5-------11-------5-------------5---|
A|-0-0----10\-0---3----5--------7-0-0----10\-0---3----5--------7-|
D|-------------------0---3--0-----------------------0---3--0-----|

e|---------------------------------------------------------------|
B|---------------------------------------------------------------|
G|---------------------------------------------------------------|
D|-----11-------5-------------5-------11-------5-------------5---|
A|-0-0----10\-0---3----5--------7-0-0----10\-0---3----5--------7-|
D|-------------------0---3--0-----------------------0---3--0-----|

e|------------------------------------------------------|
B|------------------------------------------------------|
G|------------------------------------------------------|
D|------------------------------------------------------|
A|-------3-----3-----3----------------------------------|
D|-0-0-0---0-0---0-0---0-1-0----------------------------|

  Guitar 1                      Guitar 2               Or this sounds cool
e|-----------------------------|----------------------|------------------|
B|-----------------------------|-10-10-10-7-9-9\-2-3v-|-7-7-7-3-5-0-2-3v-|
G|-----------------------------|----------------------|------------------|
D|-------0-----0----0---3-3----|----------------------|------------------|
A|-----2-----2----2---2--------|----------------------|------------------|
D|-2-2-----2----2--------------|----------------------|------------------|

e|------------------------------------------------------|
B|------------------------------------------------------|
G|------------------------------------------------------|
D|------------------------------------------------------|
A|-------3-----3-----3----------------------------------|
D|-0-0-0---0-0---0-0---0-1-0----------------------------|

  Guitar 1                      Guitar 2               Or this sounds cool
e|-----------------------------|----------------------|------------------|
B|-----------------------------|-10-10-10-7-9-9\-2-3v-|-7-7-7-3-5-0-2-3v-|
G|-----------------------------|----------------------|------------------|
D|-------0-----0----0---3-3----|----------------------|------------------|
A|-----2-----2----2---2--------|----------------------|------------------|
D|-2-2-----2----2--------------|----------------------|------------------|

e|------------------------------------------------------|
B|------------------------------------------------------|
G|------------------------------------------------------|
D|------------------------------------------------------|
A|-------3-----3-----3----------------------------------|
D|-0-0-0---0-0---0-0---0-1-0----------------------------|

  Guitar 1                      Guitar 2               Or this sounds cool
e|-----------------------------|----------------------|------------------|
B|-----------------------------|-10-10-10-7-9-9\-2-3v-|-7-7-7-3-5-0-2-3v-|
G|-----------------------------|----------------------|------------------|
D|-------0-----0----0---3-3----|----------------------|------------------|
A|-----2-----2----2---2--------|----------------------|------------------|
D|-2-2-----2----2--------------|----------------------|------------------|

  Guitar 1                      Guitar 2               Or this sounds cool
e|-----------------------------|----------------------|-------------------|
B|-----------------------------|-10-10-10-7-9-9\-2-3v-|-7-7-7-3-5-0-2-3v--|
G|-----------------------------|----------------------|-------------------|
D|-----------------------------|----------------------|-------------------|
A|-------3-----3-----3---------|----------------------|-------------------|
D|-0-0-0---0-0---0-0---0-1-0---|----------------------|-------------------|

  Guitar 1                      Guitar 2               Or this sounds cool
e|-----------------------------|----------------------|------------------|
B|-----------------------------|-10-10-10-7-9-9\-2-3v-|-7-7-7-3-5-0-2-3v-|
G|-----------------------------|----------------------|------------------|
D|-------0-----0----0---3-3----|----------------------|------------------|
A|-----2-----2----2---2--------|----------------------|------------------|
D|-2-2-----2----2--------------|----------------------|------------------|

  Guitar 1                      Guitar 2               Or this sounds cool
e|-----------------------------|----------------------|------------------|
B|-----------------------------|-10-10-10-7-9-9\-2-3v-|-7-7-7-3-5-0-2-3v-|
G|-----------------------------|----------------------|------------------|
D|-------0-----0----0---3-3----|----------------------|------------------|
A|-----2-----2----2---2--------|----------------------|------------------|
D|-2-2-----2----2--------------|----------------------|------------------|

  Guitar 1                      Guitar 2               Or this sounds cool
e|-----------------------------|----------------------|------------------|
B|-----------------------------|-10-10-10-7-9-9\-2-3v-|-7-7-7-3-5-0-2-3v-|
G|-----------------------------|----------------------|------------------|
D|-------0-----0----0---3-3----|----------------------|------------------|
A|-----2-----2----2---2--------|----------------------|------------------|
D|-2-2-----2----2--------------|----------------------|------------------|

  Guitar 1                      Guitar 2               Or this sounds cool
e|-----------------------------|----------------------|------------------|
B|-----------------------------|-10-10-10-7-9-9\-2-3v-|-7-7-7-3-5-0-2-3v-|
G|-----------------------------|----------------------|------------------|
D|-------0-----0----0---3-3----|----------------------|------------------|
A|-----2-----2----2---2--------|----------------------|------------------|
D|-2-2-----2----2--------------|----------------------|------------------|



Used Tab Symbols
_____________________
 h  = Hammer On
 p  = Pull Off
 ~  = Sustain
 v  = Vibrato
 w  = Wide Vibrato
 b  = Bend
 hb = Bend Halfway
 /  = Slide Up
 \  = Slide Down
 *  = Trill
 x  = Muted Note
 H  = Harmonic
 t  = Right Hand Tap
 :  = Let Ring
_____________________
Tap to rate this tab
 
# A B C D E F G H I J K L M N O P Q R S T U V W X Y Z