Song name
# A B C D E F G H I J K L M N O P Q R S T U V W X Y Z

Fatty Gets A Stylist - Are You Ready tab

-------------------------------------------------------------------------------
			     ARE YOU READY? - Fatty Gets A Stylist
-------------------------------------------------------------------------------

Tabbed by: sscagnetti
Email: mike_tony2@hotmail.com

Tuning: Standard

e|--------------------------|
B|--6--6--6--6--6--6--6--6--|
G|--7--7--7--7--7--5--7--7--|x4
D|--8--8--8--8--5--7--8--8--|
A|--------------------------|
E|--------------------------|



e|--------------------------------------------------|
B|--4--4--6--6--6--6--6--6--4--4--6--6--6--6--6--6--|
G|--3--3--7--7--5--5--7--7--3--3--7--7--5--5--5--5--|
D|--5--5--8--8--7--7--8--8--5--5--8--8--7--7--7--7--|
A|--------------------------------------------------|
E|--------------------------------------------------|



e|--------------------------------------------------|
B|--4--4--6--6--6--6--6--6--4--4--6--6--------------|
G|--3--3--7--7--5--5--7--7--3--3--7--7--8--5--7-----|
D|--5--5--8--8--7--7--8--8--5--5--8--8-----------8--|
A|--------------------------------------------------|
E|--------------------------------------------------|



e|--------------------------|
B|--6--6--6--6--6--6--6--6--|
G|--7--7--7--7--7--5--7--7--|x2
D|--8--8--8--8--5--7--8--8--|
A|--------------------------|
E|--------------------------|



e|--------------------------------------------------|
B|--4--4--6--6--6--6--6--6--4--4--6--6--6--6--6--6--|
G|--3--3--7--7--5--5--7--7--3--3--7--7--5--5--5--5--|
D|--5--5--8--8--7--7--8--8--5--5--8--8--7--7--7--7--|
A|--------------------------------------------------|
E|--------------------------------------------------|



e|--------------------------------------------------|
B|--4--4--6--6--6--6--6--6--4--4--6--6--------------|
G|--3--3--7--7--5--5--7--7--3--3--7--7--8--5--7-----|
D|--5--5--8--8--7--7--8--8--5--5--8--8-----------8--|
A|--------------------------------------------------|
E|--------------------------------------------------|



e|--------------------------|
B|--6--6--6--6--6--6--6--6--|
G|--7--7--7--7--7--5--7--7--|x4
D|--8--8--8--8--5--7--8--8--|
A|--------------------------|
E|--------------------------|



e|--------------------------------------------------|
B|--4--4--6--6--6--6--6--6--4--4--6--6--6--6--6--6--|
G|--3--3--7--7--5--5--7--7--3--3--7--7--5--5--5--5--|
D|--5--5--8--8--7--7--8--8--5--5--8--8--7--7--7--7--|
A|--------------------------------------------------|
E|--------------------------------------------------|



e|--------------------------------------------------|
B|--4--4--6--6--6--6--6--6--4--4--6--6--------------|
G|--3--3--7--7--5--5--7--7--3--3--7--7--8--5--7-----|
D|--5--5--8--8--7--7--8--8--5--5--8--8-----------8--|
A|--------------------------------------------------|
E|--------------------------------------------------|



e|--------------------------|
B|--6--6--6--6--6--6--6--6--|
G|--7--7--7--7--7--5--7--7--|x2
D|--8--8--8--8--5--7--8--8--|
A|--------------------------|
E|--------------------------|



e|--------------------------------------------------|
B|--4--4--6--6--6--6--6--6--4--4--6--6--6--6--6--6--|
G|--3--3--7--7--5--5--7--7--3--3--7--7--5--5--5--5--|
D|--5--5--8--8--7--7--8--8--5--5--8--8--7--7--7--7--|
A|--------------------------------------------------|
E|--------------------------------------------------|



e|--------------------------------------------------------------|
B|--4--4--6--6--6--6--6--6--4--4--6--6--------------------------|
G|--3--3--7--7--5--5--7--7--3--3--7--7--8--5--7-----8--5--7-----|
D|--5--5--8--8--7--7--8--8--5--5--8--8-----------8-----------8--|
A|--------------------------------------------------------------|
E|--------------------------------------------------------------|



e|--------------|
B|--------------|
G|--8--5--7-----|
D|-----------8--|
A|--------------|
E|--------------|



e|--------------------------|
B|--6--6--6--6--6--6--6--6--|
G|--7--7--7--7--7--5--7--7--|x7
D|--8--8--8--8--5--7--8--8--|
A|--------------------------|
E|--------------------------|



e|-----------------------|
B|--6--6--6--6--6--6--6--|
G|--7--7--7--7--7--5--7--|
D|--8--8--8--8--5--7--8--|
A|-----------------------|
E|-----------------------|



LYRICS

[Chorus]
Are you all ready, are you ready get set, are you ready get set, are you ready?
Are you all ready, are you ready get set, are you ready get set, let's go.

Does your hair look right, is your fly done up, have you popped your pimples?
Have you got your coat, and some lippy on, just keep it simple.
Are you all cashed up, I can lend you some, well I'd be glad to.
Have you had a think and a warm up drink? Now! Now! Now! Now!

[Chorus]

Is the cat put out, is the iron off, we don't wanna come home to a fire.
Have you trimmed your beard, are your sandals shined, do you look like a hipster Messiah?
Have you got your keys, have you got ID, did you bring a comb for Gary?
Have you had a think and a warm up drink? Na! Na! Na! Na!

[Chorus]

Leave your book, and leave the mirror, cause you're already stunning.
The sky above was never clearer, and the engine's running.
So cast aside your novelty ties, and bury your vendettas.
Life is short, but tonight your ass is mine! Mine! Mine! Mine!

[Chorus]

Leave your book, and leave the mirror, cause you're already stunning.
The sky above was never clearer, and the engine's running.
Well the end is nigh, and there's not much time, so get things rolling.
Life is pain, but we're okay. Now! Now! Now! Now! Now! No! No! No! 

What have I forgotten?
(The horns!)
Now, no, no!

[Marching band]

[Chorus]x2


Band Website: http://www.fattygetsastylist.com/
Tap to rate this tab
 
# A B C D E F G H I J K L M N O P Q R S T U V W X Y Z