Song name
# A B C D E F G H I J K L M N O P Q R S T U V W X Y Z

Fear And The Nervous System - Choking Victim tab

Riff 1
D|------------------------------------------------|
A|------------------------------------------------|
F|------------------------------------------------|
C|------------------------------------------------| x3
G|--4-4-------5-5-------6-6-------7-7-------------|
D|--4-4-------5-5-------6-6-------7-7-------------|
A|--2-2-xxxxx-3-3-xxxxx-4-4-xxxxx-5-5-xxxxx-------|

Riff 2
D|------------------------------------------------|
A|------------------------------------------------|
F|------------------------------------------------|
C|-----10-----------------------------------------| 
G|----9-------------------------------------------|
D|---8--------------------------------------------|
A|--7---------------------------------------------|

Verse 
D|------------------------------------------------|
A|------------------------------------------------|
F|------------------------------------------------|
C|------------------------------------------------| x2
G|--44--44-44477--77-77766--66-66644--44-444!-----|
D|--22--22-22255--55-55544--44-44411--11-111------|
A|------------------------------------------------|

Pre-chorus
D|------------------------------------------------|
A|------------------------------------------------|
F|--------------------6666------------------------|
C|--------------------xxxx------------------------| x1
G|-----5-----5-----5--4444------------------------|
D|------------------------------------------------|
A|--2-----2-----2---------------------------------|

Chorus
D|------------------------------------------------|
A|------------------------------------------------|
F|---------------------------999999988888444------|
C|---------------------------xxxxxxxxxxxxxxx------| x2
G|--5-4--4-5-4--5-4--4-5-4---777777766666222------|
D|------------------------------------------------|
A|-----2------22---2------22----------------------|

Riff 3 - Pre-verse
D|------------------------------------------------|
A|------------------------------------------------|
F|------------------------------------------------|
C|------------------------------------------------| x1
G|------------------------------------------------|
D|------------------------------------------------|
A|-443232-4-5--443232-4-5--443232-4-5--443232-4-2-|

Verse
D|------------------------------------------------|
A|------------------------------------------------|
F|------------------------------------------------|
C|------------------------------------------------| x2
G|--44--44-44477--77-77766--66-66644--44-444!-----|
D|--22--22-22255--55-55544--44-44411--11-111------|
A|------------------------------------------------|

Pre-chorus
D|------------------------------------------------|
A|------------------------------------------------|
F|--------------------6666------------------------|
C|--------------------xxxx------------------------| x1
G|-----5-----5-----5--4444------------------------|
D|------------------------------------------------|
A|--2-----2-----2---------------------------------|

Chorus
D|------------------------------------------------|
A|------------------------------------------------|
F|---------------------------999999988888444------|
C|---------------------------xxxxxxxxxxxxxxx------| x2
G|--5-4--4-5-4--5-4--4-5-4---777777766666222------|
D|------------------------------------------------|
A|-----2------22---2------22----------------------|

Riff 3 - Pre-breakdown (with effects)
D|------------------------------------------------|
A|------------------------------------------------|
F|------------------------------------------------|
C|------------------------------------------------| x1
G|------------------------------------------------|
D|------------------------------------------------|
A|-443232-4-5--443232-4-5--443232-4-5--443232-4-2-|

Riff 4 
D|------------------------------------------------|
A|------------------------------------------------|
F|------------------------------------------------|
C|------------------------------------------------| x2
G|--------6-7---------7-6---------6-7---------6-4-|
D|--------6-7---------7-6---------6-7---------6-4-|
A|-443232-4-5--443232-5-4--443232-4-5--443232-4-2-|

Riff 1
D|------------------------------------------------|
A|------------------------------------------------|
F|------------------------------------------------|
C|------------------------------------------------| x2
G|--4-4-------5-5-------6-6-------7-7-------------|
D|--4-4-------5-5-------6-6-------7-7-------------|
A|--2-2-xxxxx-3-3-xxxxx-4-4-xxxxx-5-5-xxxxx-------|

Riff 5 (with effects)
D|----------------------------------------------------|
A|----------------------------------------------------|
F|----------------------------------------------------|
C|----------------------------------------------------| x1
G|----------------------------------------------------|
D|----------------------------------------------------|
A|-222h4232-5-4-222h4232-4-5-222h4232-5-4-222h4232-4-2|

Riff 5
D|----------------------------------------------------|
A|----------------------------------------------------|
F|----------------------------------------------------|
C|----------------------------------------------------| x1
G|----------7-6----------6-7----------7-6----------6-4|
D|----------7-6----------6-7----------7-6----------6-4|
A|-222h4232-5-4-222h4232-4-5-222h4232-5-4-222h4232-4-2|
Tap to rate this tab
# A B C D E F G H I J K L M N O P Q R S T U V W X Y Z