Song name
# A B C D E F G H I J K L M N O P Q R S T U V W X Y Z

Fear - I Love Living In The City tab

e--------------------------------------------------------------------|
B--------------------------------------------------------------------|
G-7-7-7-7-7-7-7-7----------------------------------------------------|
D-7-7-7-7-7-7-7-7--8-8-8-8-8-8-8-8-----------------------------------|
A-5-5-5-5-5-5-5-5--8-8-8-8-8-8-8-8-----------------------------------|
E------------------6-6-6-6-6-6-6-6-----------------------------------|


e---------------------------------------------------------------------|
B---------------------------------------------------------------------|
G-77777777------------10-10-10-10-10-10-10-10-10-10-10-10-10-10-10-10-|
D-77777777--88888888--10-10-10-10-10-10-10-10-10-10-10-10-10-10-10-10-|
A-55555555--88888888--8--8--8--8--8--8--8--8--8--8--8--8--8--8--8--8--|
E-----------66666666--------------------------------------------------|


e----------------------------------------------------------------------|
B----------------------------------------------------------------------|
G-77777777------------10-10-10-10-10-10-10-10--------------------------|
D-77777777--88888888--10-10-10-10-10-10-10-10--8-8-8-8-8-8-8-8---------|
A-55555555--88888888---8--8--8--8--8--8--8--8--8-8-8-8-8-8-8-8---------|
E-----------66666666---------------------------6-6-6-6-6-6-6-6---------|
Tap to rate this tab
 
# A B C D E F G H I J K L M N O P Q R S T U V W X Y Z