Song name
# A B C D E F G H I J K L M N O P Q R S T U V W X Y Z

Feeder - Moonshine tab

Song: Moonshine
Band: Feeder
Album: Comfort in sound

Both Guitars: standard tuning

GTR 1

intro & verse 1:repeat trough all the verse
e|---------------------------------------------|
B|-----7---7------7---7------------------------|
G|----7----------7-----------6---6------6---6--|
D|-------------------------7----------7--------|
A|---0----0----0----0----0-----0----0-----0----|
E|---------------------------------------------|


Pre-Chorus 1:
e|-------------------------------------------------------------------------|
B|7-7-7-9-9-9-5-5-5-5-5-5-5-5-5-9-9-9-9-7-7-9-10-10-10-10-10-10-12-12-12-12|
G|-------------------------------------------------------------------------|
D|4-4-4-6-6-6\2-2-2-2-2-2-2-2-2/6-6-6-6-4-4-6-7--7--7--7--7--7--9--9--9--9-|
A|0-0-0-0-0-0-0-0-0-0-0-0-0-0-0-0-0-0-0-0-0-0-0--0--0--0--0--0--0--0--0--0-|
E|-------------------------------------------------------------------------|

e|-------------------------------------------------------------------------|
B|7-7-7-9-9-9-5-5-5-5-5-5-5-5-5-9-9-9-9-7-7-9-10-10-10-10-10-10-10-10-10-10|
G|-------------------------------------------------------------------------|
D|4-4-4-6-6-6\2-2-2-2-2-2-2-2-2/6-6-6-6-4-4-6-7--7--7--7--7--7--7--7--7--7-|
A|0-0-0-0-0-0-0-0-0-0-0-0-0-0-0-0-0-0-0-0-0-0-0--0--0--0--0--0--0--0--0--0-|
E|-------------------------------------------------------------------------|

Verse 2: same as verse 1

Pre-Chorus 2: same as pre-chorus 1

Chorus:

e|------------------------------------|------------------------------------|
B|-222222-3333-222222-----------------|222222-3333-222222------------------|
G|-222222-2222-222222-----------------|222222-2222-222222------------------|
D|-222222-2222-222222-4444444444444444|222222-2222-222222-44444444-55555555|
A|--------------------4444444444444444|-------------------44444444-55555555|
E|--------------------2222222222222222|-------------------22222222-33333333|


e|---------------------------------------------------------------------|
B|-222222-3333-222222--------------------------------------------------|
G|-222222-2222-222222--------------------------------------------------|
D|-222222-2222-222222-4444444444444444-555555555555555-444444444444444-|
A|--------------------4444444444444444-555555555555555-444444444444444-|
E|--------------------2222222222222222-333333333333333-222222222222222-|

Verse 3:same as verse 1

Pre-Chorus 3:same as pre-chorus 1

Chorus 2: same as Chorus

Bridge (listen for timing):

       EABDGe         EABDGe           EABDGe
Cmaj7 (x3xx00)  D6/9 (xx0452)  Badd11 (x2x440) [all x 7]

End on E

Break:same as verses

Final Chorus:

e|--------------------|(Part 1)
B|-222222-3333-222222-|
G|-222222-2222-222222-|
D|-222222-2222-222222-|
A|--------------------|
E|--------------------|

e|---------------------------------------------------|
B|-333333333333-222222-3333-222222-------------------|
G|-222222222222-222222-2222-222222-------------------|
D|-222222222222-222222-2222-222222-44444444-55555555-|
A|---------------------------------44444444-55555555-|
E|---------------------------------22222222-33333333-|

e|---------------------------------------------------------------------|
B|-222222-3333-222222--------------------------------------------------|
G|-222222-2222-222222--------------------------------------------------|
D|-222222-2222-222222-4444444444444444-555555555555555-444444444444444-|
A|--------------------4444444444444444-555555555555555-444444444444444-|
E|--------------------2222222222222222-333333333333333-222222222222222-|

From this point, repeat Chorus 1

Outro:
e|---------------------------------------------|x3 end on|---|
B|-----7---7------7---7------------------------|         |---|
G|----7----------7-----------6---6------6---6--|         |-6-| 
D|-------------------------7----------7--------|         |---|
A|---0----0----0----0----0-----0----0-----0----|         |-0-|
E|---------------------------------------------|         |---|
____________________________________________________________________________
GTR 2

Intro & verse 1
e|---------|repeat trough all the verse
B|---10p9--|
G|--9------|
D|---------|
A|---------|
E|---------|

Pre-chorus 1: same as gtr1

Verse 2: same as verse 1

Chorus:

e|-9-9-9-9-9-9-9--10101010-9-9-9-9-9-9--555555-222222-|
B|-10101010101010-10101010-101010101010-777777-222222-|
G|-9-9-9-9-9-9-9--9-9-9-9--9-9-9-9-9-9--666666-222222-|
D|----------------------------------------------------|
A|----------------------------------------------------|
E|----------------------------------------------------|

e|-9-9-9-9-9-9-9--10101010-9-9-9-9-9-9--555555/999-101010-|
B|-10101010101010-10101010-101010101010-777777/888-8-8-8--|
G|-9-9-9-9-9-9-9--9-9-9-9--9-9-9-9-9-9--666666/777-7-7-7--|
D|--------------------------------------------------------|
A|--------------------------------------------------------|
E|--------------------------------------------------------|

e|-9-9-9-9-9-9-9--10101010-9-9-9-9-9-9--555555555555-10101010101010101010-|
B|-10101010101010-10101010-101010101010-777777777777-10101010101010101010-|
G|-9-9-9-9-9-9-9--9-9-9-9--9-9-9-9-9-9--666666666666-9-9-9-9-9-9-9-9-9-9--|
D|------------------------------------------------------------------------|
A|------------------------------------------------------------------------|
E|------------------------------------------------------------------------|

e|-555555555555-|
B|-777777777777-|
G|-666666666666-|
D|--------------|
A|--------------|
E|--------------|

Verse 3:same as verse 1

Pre-Chorus 3:same as pre-chorus 1

Chorus 2: same as Chorus

Bridge: (listen carefully)

e|------0---0-----0-----0----------2----|-------------|x3
B|-------0------0---0-0---0-----5---5-5-|-----5----4--|
G|----4---4---4------4--------4--4---4--|-4--4------4-|
D|---5----------------------0-----------|---4---------|
A|-3----------3-------------------------|-2-----------|
E|--------------------------------------|-------------|

Cont'd
e|------0---0-----0-----0----------2----|
B|-------0------0---0-0---0-----5---5-5-|
G|----4---4---4------4--------4--4---4--|
D|---5----------------------0-----------|
A|-3----------3-------------------------|
E|--------------------------------------|

Break:same as verses

Final Chorus

Comes in after GTR1's Part 1
 
e|101010101010101010101010|
B|101010101010101010101010|
G|9-9-9-9-9-9-9-9-9-9-9-9-|
D|------------------------|
A|------------------------|
E|------------------------|

e|-9-9-9-9-9-9-9--10101010-9-9-9-9-9-9--555555/999-101010-|
B|-10101010101010-10101010-101010101010-777777/888-8-8-8--|
G|-9-9-9-9-9-9-9--9-9-9-9--9-9-9-9-9-9--666666/777-7-7-7--|
D|--------------------------------------------------------|
A|--------------------------------------------------------|
E|--------------------------------------------------------|

e|-9-9-9-9-9-9-9--10101010-9-9-9-9-9-9--555555555555-10101010101010101010-|
B|-10101010101010-10101010-101010101010-777777777777-10101010101010101010-|
G|-9-9-9-9-9-9-9--9-9-9-9--9-9-9-9-9-9--666666666666-9-9-9-9-9-9-9-9-9-9--|
D|------------------------------------------------------------------------|
A|------------------------------------------------------------------------|
E|------------------------------------------------------------------------|

e|-555555555555-|
B|-777777777777-|
G|-666666666666-|
D|--------------|
A|--------------|
E|--------------|

From this point, repeat Chorus 1

Outro:repeat till the song ends 

e|------|
B|------|
G|------|
D|--7p6-|
A|-7----|
E|------|

I can't say anything but WOW every time I listen to this song

Hope it's right, enjoy!
Tap to rate this tab
# A B C D E F G H I J K L M N O P Q R S T U V W X Y Z