Guitaretab - guitar tabs
Song name
# A B C D E F G H I J K L M N O P Q R S T U V W X Y Z
Home / F / Feff / Sold Me tab

Feff - Sold Me tab

Artist: Feff
Song: Sold Me
Album: Question the Motive

Tuning: Drop C (CGCFAD) low to high

INTRO
(Guitar 1)
D|------------------------------------------------------------------------|
A|------------------------------------------------------------------------|
F|------------------------------------------------------------------------|
C|--5-55-5-55-5-55-5-55-5-55-5-55-5-55-5----------------------------------|
G|--5-55-5-55-5-55-5-55-6-66-6-66-8-88-8----------------------------------|
C|--5-55-5-55-5-55-5-55-5-55-5-55-5-55-5----------------------------------|
    PM..   ..   ..   ..   ..   ..   ..

play throughout whole intro
(Guitar 2)
D|------------------------------------------------------------------------|
A|------------------------------------------------------------------------|
F|-0/12-12-10h12p10\8-7-7--5-5--------------------------------------------|
C|------------------------------------------------------------------------|
G|------------------------------------------------------------------------|
C|------------------------------------------------------------------------|


D|------------------------------------------------------------------------|
A|------------------------------------------------------------------------|
F|------------------------------------------------------------------------|
C|------------------------------------------------------------------------|
G|-5p2--6p3---5p2-6p3------------xxxx-------------------------------------|
C|----5----5-----5------6p5-6p5--xxxx--11p5--11p5-------------------------|

D|------------------------------------------------------------------------|
A|------------------------------------------------------------------------|
F|------------------------------------------------------------------------|
C|------------------------3-3-6-10----------------------------------------|
G|-5p2---6p3---5p2-6p3----3-3-6-10----------------------------------------|
C|----5-----5-----5-------3-3-6-10----------------------------------------|

VERSE
D|------------------------------------------------------------------------|
A|------------------------------------------------------------------------|
F|------------------------------------------------------------------------|
C|--5-55-5-55-5-55-5-55-5-55-5-55-5-55-5----------------------------------|
G|--5-55-5-55-5-55-5-55-6-66-6-66-8-88-8----------------------------------|
C|--5-55-5-55-5-55-5-55-5-55-5-55-5-55-5----------------------------------|
    PM..   ..   ..   ..   ..   ..   ..

D|------------------------------------------------------------------------|
A|------------------------------------------------------------------------|
F|------------------------------------------------------------------------|
C|--5-55-5-55-5-55-5-55-5-55-5-55-----00-0-00-0---------------------------|
G|--5-55-5-55-5-55-5-55-6-66-6-66-xx--00-0-00-0---------------------------|
C|--5-55-5-55-5-55-5-55-5-55-5-55-xx--00-0-00-0---------------------------|
    PM..   ..   ..   ..   ..   ..     ..   ..

D|------------------------------------------------------------------------|
A|------------------------------------------------------------------------|
F|------------------------------------------------------------------------|
C|--5-55-5-55-5-55-5-55-5-55-5-55-5-55-5----------------------------------|
G|--5-55-5-55-5-55-5-55-6-66-6-66-8-88-8----------------------------------|
C|--5-55-5-55-5-55-5-55-5-55-5-55-5-55-5----------------------------------|
    PM..   ..   ..   ..   ..   ..   ..

D|------------------------------------------------------------------------|
A|------------------------------------------------------------------------|
F|------------------------------------------------------------------------|
C|--5-55-5-55-5-55-5-55-5-55-5-55-5-55-5----------------------------------|
G|--5-55-5-55-5-55-5-55-6-66-6-66-8-88-8----------------------------------|
C|--5-55-5-55-5-55-5-55-5-55-5-55-5-55-5----------------------------------|
    PM..   ..   ..   ..   ..   ..   ..

CHORUS
D|------------------------------------------------------------------------|
A|------------------------------------------------------------------------|
F|----------------12-12\10/15---------------------------------------------|
C|-0-1-4-5--3-33~---------------------------------------------------------|
G|-0-1-4-5--3-33~---------------------------------------------------------|
C|-0-1-4-5--3-33~---------------------------------------------------------|

D|------------------------------------------------------------------------|
A|------------------------------------------------------------------------|
F|------------------------------------------------------------------------|
C|-0-1-4-5--3~------------------------------------------------------------|
G|-0-1-4-5--3~--6-6-6p3---------------------------------------------------|
C|-0-1-4-5--3~---------5--------------------------------------------------|

D|------------------------------------------------------------------------|
A|------------------------------------------------------------------------|
F|----------------12-12\10/15---------------------------------------------|
C|-0-1-4-5--3-33~---------------------------------------------------------|
G|-0-1-4-5--3-33~---------------------------------------------------------|
C|-0-1-4-5--3-33~---------------------------------------------------------|

D|------------------------------------------------------------------------|
A|------------------------------------------------------------------------|
F|------------------------------------------------------------------------|
C|-0-1-4-5--3~------------------------------------------------------------|
G|-0-1-4-5--3~--6-6-6p3---------------------------------------------------|
C|-0-1-4-5--3~---------5--------------------------------------------------|

POST CHORUS
D|------------------------------------------------------------------------|
A|------------------------------------------------------------------------|
F|------------------------------------------------------------------------|
C|------------------------------------------------------------------------|
G|-5p2--6p3---5p2-6p3------------xxxx-------------------------------------|
C|----5----5-----5------6p5-6p5--xxxx--11p5--11p5-------------------------|

D|------------------------------------------------------------------------|
A|------------------------------------------------------------------------|
F|------------------------------------------------------------------------|
C|------------------------3-3-6-10----------------------------------------|
G|-5p2---6p3---5p2-6p3----3-3-6-10----------------------------------------|
C|----5-----5-----5-------3-3-6-10----------------------------------------|

VERSE
D|------------------------------------------------------------------------|
A|------------------------------------------------------------------------|
F|------------------------------------------------------------------------|
C|--5-55-5-55-5-55-5-55-5-55-5-55-5-55-5----------------------------------|
G|--5-55-5-55-5-55-5-55-6-66-6-66-8-88-8----------------------------------|
C|--5-55-5-55-5-55-5-55-5-55-5-55-5-55-5----------------------------------|
    PM..   ..   ..   ..   ..   ..   ..

D|------------------------------------------------------------------------|
A|------------------------------------------------------------------------|
F|------------------------------------------------------------------------|
C|--5-55-5-55-5-55-5-55-5-55-5-55-----00-0-00-0---------------------------|
G|--5-55-5-55-5-55-5-55-6-66-6-66-xx--00-0-00-0---------------------------|
C|--5-55-5-55-5-55-5-55-5-55-5-55-xx--00-0-00-0---------------------------|
    PM..   ..   ..   ..   ..   ..     ..   ..

D|------------------------------------------------------------------------|
A|------------------------------------------------------------------------|
F|------------------------------------------------------------------------|
C|--5-55-5-55-5-55-5-55-5-55-5-55-5-55-5----------------------------------|
G|--5-55-5-55-5-55-5-55-6-66-6-66-8-88-8----------------------------------|
C|--5-55-5-55-5-55-5-55-5-55-5-55-5-55-5----------------------------------|
    PM..   ..   ..   ..   ..   ..   ..
[ Tab from: http://www.guitaretab.com/f/feff/159012.html ]
D|------------------------------------------------------------------------|
A|------------------------------------------------------------------------|
F|------------------------------------------------------------------------|
C|--5-55-5-55-5-55-5-55-5-55-5-55-5-55-5----------------------------------|
G|--5-55-5-55-5-55-5-55-6-66-6-66-8-88-8----------------------------------|
C|--5-55-5-55-5-55-5-55-5-55-5-55-5-55-5----------------------------------|
    PM..   ..   ..   ..   ..   ..   ..

CHORUS
D|------------------------------------------------------------------------|
A|------------------------------------------------------------------------|
F|----------------12-12\10/15---------------------------------------------|
C|-0-1-4-5--3-33~---------------------------------------------------------|
G|-0-1-4-5--3-33~---------------------------------------------------------|
C|-0-1-4-5--3-33~---------------------------------------------------------|

D|------------------------------------------------------------------------|
A|------------------------------------------------------------------------|
F|------------------------------------------------------------------------|
C|-0-1-4-5--3~------------------------------------------------------------|
G|-0-1-4-5--3~--6-6-6p3---------------------------------------------------|
C|-0-1-4-5--3~---------5--------------------------------------------------|

D|------------------------------------------------------------------------|
A|------------------------------------------------------------------------|
F|----------------12-12\10/15---------------------------------------------|
C|-0-1-4-5--3-33~---------------------------------------------------------|
G|-0-1-4-5--3-33~---------------------------------------------------------|
C|-0-1-4-5--3-33~---------------------------------------------------------|

D|------------------------------------------------------------------------|
A|------------------------------------------------------------------------|
F|------------------------------------------------------------------------|
C|-0-1-4-5--3~------------------------------------------------------------|
G|-0-1-4-5--3~--6-6-6p3---------------------------------------------------|
C|-0-1-4-5--3~---------5--------------------------------------------------|

BRIDGE
D|------------------------------------------------------------------------|
A|------------------------------------------------------------------------|
F|------------------------------------------------------------------------|
C|-5-8-10-13-15-----------------------------------------------------------|
G|-5-8-10-13-15-----------------------------------------------------------|
C|-5-8-10-13-15-----------------------------------------------------------|

D|------------------------------------------------------------------------|
A|------------------------------------------------------------------------|
F|------------------------------------------------------------------------|
C|------------------------------------------------------------------------|
G|-5p2---6p3---5p2-6p3----------------------------------------------------| 
C|----5-----5-----5---5---------------------------------------------------|
                         ^x2

D|------------------------------------------------------------------------|
A|------------------------------------------------------------------------|
F|------------------------------------------------------------------------|
C|-5-8-10-13-15-----------------------------------------------------------|
G|-5-8-10-13-15-----------------------------------------------------------|
C|-5-8-10-13-15-----------------------------------------------------------|

D|------------------------------------------------------------------------|
A|------------------------------------------------------------------------|
F|------------------------------------------------------------------------|
C|-5-4-5-8----------------------------------------------------------------|
G|-5-5-5-8----------------------------------------------------------------|
C|-5-4-5-8-10~~-----------------------------------------------------------|

D|------------------------------------------------------------------------|
A|------------------------------------------------------------------------|
F|----------------12-12\10/15---------------------------------------------|
C|-0-1-4-5--3-33~---------------------------------------------------------|
G|-0-1-4-5--3-33~---------------------------------------------------------|
C|-0-1-4-5--3-33~---------------------------------------------------------|

D|------------------------------------------------------------------------|
A|------------------------------------------------------------------------|
F|------------------------------------------------------------------------|
C|-0-1-4-5--3~------------------------------------------------------------|
G|-0-1-4-5--3~--6-6-6p3---------------------------------------------------|
C|-0-1-4-5--3~---------5--------------------------------------------------|

D|------------------------------------------------------------------------|
A|------------------------------------------------------------------------|
F|----------------12-12\10/15---------------------------------------------|
C|-0-1-4-5--3-33~---------------------------------------------------------|
G|-0-1-4-5--3-33~---------------------------------------------------------|
C|-0-1-4-5--3-33~---------------------------------------------------------|

D|------------------------------------------------------------------------|
A|------------------------------------------------------------------------|
F|------------------------------------------------------------------------|
C|-0-1-4-5--3~------------------------------------------------------------|
G|-0-1-4-5--3~--6-6-6p3---------------------------------------------------|
C|-0-1-4-5--3~---------5--------------------------------------------------|

OUTRO
D|------------------------------------------------------------------------|
A|------------------------------------------------------------------------|
F|------------------------------------------------------------------------|
C|-------------------------------------------------17^--------------------|
G|-5p2--6p3---5p2-6p3------------xxxx--------------17^--------------------|
C|----5----5-----5------6p5-6p5--xxxx--11p5--11p5--17^--------------------|

D|------------------------------------------------------------------------|
A|------------------------------------------------------------------------|
F|------------------------------------------------------------------------|
C|------------------------3-3-6-10----------------------------------------|
G|-5p2---6p3---5p2-6p3----3-3-6-10----------------------------------------|
C|----5-----5-----5-------3-3-6-10----------------------------------------|

D|------------------------------------------------------------------------|
A|------------------------------------------------------------------------|
F|------------------------------------------------------------------------|
C|-------------------------------------------------17^--------------------|
G|-5p2--6p3---5p2-6p3------------xxxx--------------17^--------------------|
C|----5----5-----5------6p5-6p5--xxxx--11p5--11p5--17^--------------------|

D|------------------------------------------------------------------------|
A|------------------------------------------------------------------------|
F|------------------------------------------------------------------------|
C|------------------------3-3-6-10----------------------------------------|
G|-5p2---6p3---5p2-6p3----3-3-6-10----------------------------------------|
C|----5-----5-----5-------3-3-6-10----------------------------------------|


|-------------------------------------------------------------------------|
|-------------------------------------------------------------------------|
|-7p4--8p5---7p4-8p5------------------------------------------------------|
|----5----5-----5---5-----------------------------------------------------|
|-------------------------------------------------------------------------|
|-------------------------------------------------------------------------|
Repeat till end of song
Related for Sold Me tab
Advertisement will be closed in 10 seconds