Feist - Water tab

E---------------------------0-|
B---3---1---3---1-------------|
G-----------------------------|
D----------------------3------|
A-----------------------------|
E-----------------------------|

E---------------------------------------------0-|
B---3---1---3---1------3--1--3--1---------------|
G--------------------2-----------------2--------|
D----------------------3------------------3-----|
A-----------------------------------------------|
E-


Working on the rest... Sounds the best with capo 3rd fret
Tap to rate this tab
 
# A B C D E F G H I J K L M N O P Q R S T U V W X Y Z