Song name
# A B C D E F G H I J K L M N O P Q R S T U V W X Y Z

Feist - Comfort Me tab

Artist: Feist
Song: Comfort Me
Album: Metals (2011)

Capo 5th fret

chords below correspond with the melody above, it's not two guitars but that should give 
you an idea of how to play it

|-----------------------------------------------|
|-3-0------------------3-0---------3-0----------|
|-----2-0----------0h2-----2-0---------2-0------|
|---------2----0h2-------------2-----------2----|
|------------2----------------------------------|
|-----------------------------------------------|


|-----------------------------------------------|
|-----------------------------------------------|
|-----2--------------------2-------0---2--------|
|-2---2---2--2-------------2---2---0---2---2----|
|-2---0---2--2-------------0---2---2---0---2----|
|-0-------0--0-----------------0---3-------0----|
Tap to rate this tab
# A B C D E F G H I J K L M N O P Q R S T U V W X Y Z