Song name
# A B C D E F G H I J K L M N O P Q R S T U V W X Y Z

Feist - Gatekeeper chords

Feist
Gatekeeper (One Room One Hour Mix)

I translated this tab from a video capturing the basic chords of the song. A nice lounge tune.


Verse

e|---x----x------x------x-----|
B|---x----x------x------x-----|
G|---5----10-----7------12----|
D|---5----10-----7------12----|
A|---x----x------x------11----|
E|---5----10-----7------12----|


Pre-Chorus

e|---x-----x----x----x-----|
B|---x-----x----x----x-----|
G|---10----9----7----12----|
D|---10----9----7----12----|
A|---x-----x----x----11----|
E|---10----8----6----12----|

e|---x-----x----x-----x----|
B|---x-----x----x-----x----|
G|---10----9----7-----7----|
D|---10----9----7-----6----|
A|---x-----x----x-----7----|
E|---10----8----7-----0----|

Chorus

e|---1---3---x----|
B|---1---3---x----|
G|---2---4---5----|
D|---1---3---5----|
A|---3---5---x----|
E|---1---3---5----|

e|---1---x---x----|
B|---1---x---x----|
G|---2---7---4----|
D|---1---6---3----|
A|---3---x---x----|
E|---1---6---3----|

Outro

e|---x----x------x-----x----|
B|---x----x------x-----x----|
G|---5----10-----4-----9----|
D|---5----10-----3-----9----|
A|---x----x------x-----7----|
E|---5----10-----3-----8----|


As always, comments and corrections are encouraged and welcomed.
Tap to rate this tab
# A B C D E F G H I J K L M N O P Q R S T U V W X Y Z