Song name
# A B C D E F G H I J K L M N O P Q R S T U V W X Y Z

Fernando Ferandiere - Rondo tab

RONDO
Fernando Ferandiиre (Zamora, Spain, C18th)

Tablature by Hernбn Guillermo Renom - dasein79@hotmail.com
from the book "ANTOLOGI.A DE OBRAS PARA GUITARRA.
Elegidas, revisadas y digitadas por ISAIAS SAVIO"

RONDO

Tuning: Standard
Key: || G Major || G Minor ||
Time Signature: 3/8
r = rest - when placed after h (1/2 note), q (1/4 note), e (1/8 note), s...

Allegro

             1
||--10p8--|--7-----------------|--------------8-p7--|--------------------|
||--------|--------------9-----|--10----------------|--10----------7-----|
||--------|--------------------|--------------------|--------------------|
||--------|--------------------|--------------------|--er----0-----------|
||--------|--------------------|--er----0-----------|--------------------|
||--------|--er----0-----------|--------------------|--------------------|

4
|--------------------|--------------------|--------------------|
|--8-----------2-h3--|--5-p3--------------|--------0-h1--2-h3--|
|--er----0-----------|--------5-p4--2-h4--|--0-h2--------------|
|--------------------|--------------------|--------------------|
|--------------------|--------------------|--------------------|
|--------------------|--------------------|--------------------|

7
|--------------------|--------------0-----|--------------2-----|
|--------er----3-----|--3-p2-----2-----2--|--5-p3-----3-----3--|
|--2-----------------|--------------------|--------------------|
|--------------------|--------------------|--------------------|
|--------------------|--er----0-----------|--er----0-----------|
|--------------------|--------------------|--------------------|
                                                     cresc.

10
|--2-p0--------3-----|-----2-----3-----5--|--0-----er----------|
|-----------5-----5--|-----3-----5-----7--|--2-----------3-----|
|--------------------|--------------------|--0-----------2-----|
|--------------------|--0-----0-----0-----|--------er----4-----|
|--er----0-----------|--------------------|--------------------|
|--------------------|--------------------|--------------------|

13
|--------------------|--2--------------||--1-----||-----1--0--0--0--0--0--|
|--0-----er----2-----|--3--------------||--------||-----------------------|
|--0-----------2-----|--2-----------*--||--------||--*--------------------|
|--------------------|--0-----------*--||--3-----||--*--3--2--2-----------|
|--------------0-----|-----------------||--------||-----------------------|
|--3-----er----------|-----------------||--------||-----------------------|

16
|--0-----4-----7-----|--10------------10--|--8--------------8--|
|--------------------|--------------------|--------------------|
|--------------------|--------------------|--------------------|
|--------------------|--------------------|--------------------|
|--------------------|--------------------|--------------------|
|--sr-0-----0-----0--|--sr-0--10p0--------|--sr-0--8-p0--------|

19
|--7--------------7--|--------------0-----|--------------------|
|--------------------|--3-p1--0-h1-----1--|--1-----1--1--1--1--|
|--------------------|--------------------|--------------------|
|--------------------|--------------------|--1-p0--er----er----|
|--------------------|--------------------|--------------------|
|--sr-0--7-p0--------|--0-----------------|--------------------|

22
|--------------------|--0-----2-----5-----|--8--------------8--|
|--1-----1--1--1--1--|--------------------|--------------------|
|--------------------|--------------------|--------------------|
|--1-p0--er----er----|--sr-0-----0-----0--|--sr-0--7-p0--------|
|--------------------|--------------------|--------------------|
|--------------------|--------------------|--------------------|

25
|--7--------------7--|--5--------------5--|-----3--3--3-----3--|
|--------------------|--------------------|--------------------|
|--------------------|--------------------|--0-----------2-----|
|--sr-0--5-p0--------|--sr-0--4-p0--------|--------------------|
|--------------------|--------------------|--------------------|
|--------------------|--------------------|--------------------|
                                                          cresc.

28
|-----3--3--3-----3--|-----3--3--3-----3--|--3-----3-----3-----|
|--------------0-----|--1-----------2-----|--------2-----------|
|--3-----------------|--------------------|--------------------|
|--------------------|--------------------|--er----1-----------|
|--------------------|--------------------|--------------------|
|--------------------|--------------------|--------------------|

31
|--2-----er----1-----|--------------0-----|--------------------|
|--3-----------3-----|--0-----1-----1-----|--2-----0-----3-h4--|
|--2-----------------|--1-----2-----------|--4-----0-----------|
|--0-----er----------|--------------------|--------------------|
|--------------------|--------------------|--------------------|
|--------------------|--------------------|--------------------|

34
|--0-----------------|--------------------|
|-----1--0-----------|--1-----------------|
|-----------2--0-----|--2-----------------|
|-----------------4--|--4-----------------|
|--------------------|--3-----------------|
|--------------------|--------------------|
|--------------------|--------------------|

1_______________________ 2_____________ FINE.+
|--------------1--------||--------------------||
|-----------------------||--------------------||
|--0-----------------*--||--0-----------er----||
|--0-----------3-----*--||--0-----------------||
|-----------------------||--------------------||
|--3--------------------||--3-----------er----||

38
||-----------------------|--------------------|--------------------|
||--------3--3--3-----3--|-----4--4--4-----4--|-----3--3--3-----3--|
||--*-----3--3--3-----3--|-----5--5--5-----5--|-----3--3--3-----3--|
||--*--5-----------5-----|--5-----------5-----|--5-----------5-----|
||-----------------------|--------------------|--------------------|
||-----------------------|--------------------|--------------------|

41
|-----------5--------|--------------------|--------------------|
|--------7-----7-----|-----8--8--8-----6--|-----4--4--4-----3--|
|-----7-----------7--|--------------------|--------------------|
|--0-----------------|--5-----------3-----|--1-----------0-----|
|--------------------|--------------------|--------------------|
|--------------------|--------------------|--------------------|

44
|--------------------|-----------------------|||-----------------------|
|--sr-1-----1-----1--|--1--------------------|||-----3-----3-----3-----|
|--------------------|--2-----------------*--|||--*--------3-----------|
|--------------------|--0-----------------*--|||--*--------3-----------|
|--3-----0-----------|-----------------------|||-----------------------|
|--------------3-----|--2--------------------|||-----er----6-----------|
            rit.------------

47
|--------------------|--6--5--3-----------|--------------------|
|--3-----------3--6--|-----------6--4--3--|--6-p5--5-p4--4-----|
|--3-----sr-3--------|--------------------|--------------------|
|--3-----------------|--------------------|--------------------|
|--------------------|--------------------|--------------------|
|--6-----------------|--------------------|--------------------|

50
|--------------------|--------------------|--------------------|
|--1-----1-----1-----|--1--------------1--|--4--6--7--8--4--1--|
|--------2-----------|--2-----------2-----|--------------------|
|--er----3-----------|--3-----sr-3--------|--------------------|
|--------------------|--------------------|--------------------|
|--------------------|--------------------|--------------------|

53
|--------------------|-----------2--2--2--|--2-h3--3========---|
|-----------3--3--3--|--3-p1--1========---|--er-------3--3--3--|
|--2-h3--3========---|--er----------------|--------------------|
|--er----------------|--------------------|--------------------|
|--------------------|--------------------|--------------------|
|--------------------|--------------------|--------------------|
              p                                p

   ___3___
|-----------------------|--5--------------------|
|--1-/3-h4--------------|--3--------------------|
|-----------------------|--5--------------------|
|-----------5-----4-----|--4--------------------|
|-----------------------|-----------------------|
|-----------------------|-----------------------|

 1______________________  2______ D.C. al Fine
|--3-----------er-------||--3-----------------||
|--3--------------------||--3-----------------||
|--3-----------------*--||--3-----------------||
|--5-----------er----*--||--5-----------------||
|-----------------------||--------------------||
|-----------------------||--------------------||
Tap to rate this tab
 
# A B C D E F G H I J K L M N O P Q R S T U V W X Y Z