Song name
# A B C D E F G H I J K L M N O P Q R S T U V W X Y Z

Ferry Bryan - Jealous Guy tab

intro

e--------------------------------------|
b--------------------------------------|
g--12--9--7--4--5-5-5-5-5-5-5-5-5------|
d--12--9--7--4--5-5-5-5-5-5-5-5-5------|
a--10--7--5--2--3-3-3-3-3-3-3-3-3------|
e--------------------------------------|

verse

e----------------------15----------------------15---------15--------------|
b---------------------------------------------------17-17-----17-15-15----|
g--16-14-16-14-16-------16-14-16-14-16------------------------------------|
d-------------------------------------------------------------------------|
a-------------------------------------------------------------------------|
e-------------------------------------------------------------------------|

prechorus

e-------------------------------|--------------------|
b-------------------------------|--7b-7--------------|
g--5-5-5-5-5-5--5-5-5-5-5-5-|------------------------|(x3)
d--5-5-5-5-5-5--5-5-5-5-5-5-|--------9-7b-7-5--------|
a--3-3-3-3-3-3--3-3-3-3-3-3-|------------------------|
e--------------------------------|-------------------|

e-------------------------------|-------------------------------------------------------|
b-------------------------------|-------------------------------------------------------|
g--5-5-5-5-5-5--5-5-5-5-5-5-|-5-5-5-5-5-5-5-5-7-7-7--5-5-5-5-5-5-5-5-2-2-2--------------|
d--5-5-5-5-5-5--5-5-5-5-5-5-|-----------------------------------------------------------|
a--3-3-3-3-3-3--3-3-3-3-3-3-|-----------------------------------------------------------|
e--------------------------------|------------------------------------------------------|


chorus

e----------------------------------|
b------------7-------------7-------|
g-------7-9---9-7----7-9----9-7----|
d--7-9-------------9---------------|(x3)
a----------------------------------|
e----------------------------------|

postchorus

e--------i pick rapidly,--------
b-but you can play like this--
g--12-12-14-14--9-9-7-/12\9------|
d--------------------------------|(x3 - 4th time without the slide)
a--------------------------------|
e--------------------------------|
Tap to rate this tab
 
# A B C D E F G H I J K L M N O P Q R S T U V W X Y Z