Fettes Brot - Jein tab

Keyboard Zwischenspiel

e-------------------------------------------------------------------|
h---------------------------8---------9----------11--9--------------|
G------------------10--8------10----8---8--10----------10----10-----|
D-10---11--10---10-------10------10-----------10----------10--------|
A----8-------8------------------------------------------------------|
E-------------------------------------------------------------------|

e-------11 sl 13---13-------------------------------------------------|
h-9--11---------------------------------------------------------------|
G---------------------------------------------------------------------|
D---------------------------------------------------------------------|
A---------------------------------------------------------------------|
E---------------------------------------------------------------------|

Chords zum Zwischenspiel

   Fm     (G#)    A#     C#     D#
e--8-/-/---8-/-/--6-/-/--4-/-/--6-----------------------------------|
h--9-/-/---9-/-/--6-/-/--6-/-/--8-----------------------------------|
G-10-/-/--10-/-/--7-/-/--6-/-/--8-----------------------------------|
D-------------------------------------------------------------------|
A-------------------------------------------------------------------|
E-------------------------------------------------------------------|
Tap to rate this tab
 
# A B C D E F G H I J K L M N O P Q R S T U V W X Y Z