Song name
# A B C D E F G H I J K L M N O P Q R S T U V W X Y Z

Feuerschwanz - Der Teufel tab

Part 1:
e|---7-7-5-3---2-3-2---7-7-5-3---2-3-|
h|-5---------5-------5---------5-----|
g|-----------------------------------|
D|-----------------------------------| x2 
A|-----------------------------------|
E|-----------------------------------|

e|---------------------------------|
h|-3-5-7-8-10-7-3-5-3-5-7-8-10-7-3-|
g|---------------------------------|
D|---------------------------------|
A|---------------------------------|
E|---------------------------------|

e|---7-7-5-3---2-3-2---7-7-5---|
h|-5---------5-------5-------5-|
g|-----------------------------|
D|-----------------------------| 
A|-----------------------------|
E|-----------------------------|

Part 1 (repeat)

Part 2:
e|-7-7-7-7-7-7-7-5-3-2-3-5-3-2-3-2---|
h|---------------------------------5-|
g|-----------------------------------|
D|-----------------------------------|
A|-----------------------------------|
E|-----------------------------------|

e|-7-7-7-7-7-7-7-8-7-5-7-5-3-2-3-2---|
h|---------------------------------5-|
g|-----------------------------------|
D|-----------------------------------|
A|-----------------------------------|
E|-----------------------------------|

e|-7-7-7-7-7-7-7-5-3-2-3-5-3-2-3-2---|
h|---------------------------------5-|
g|-----------------------------------|
D|-----------------------------------|
A|-----------------------------------|
E|-----------------------------------|


e|-7-7-7-7-7-7-7-5-3-2-3-5-3-2-----|
h|-----------------------------5-5-|
g|---------------------------------|
D|---------------------------------|
A|---------------------------------|
E|---------------------------------|
Tap to rate this tab
# A B C D E F G H I J K L M N O P Q R S T U V W X Y Z