Fff - Barbes tab

FFF - Barbes

FFF : http://www.myspace.com/fffparis

RIFF INTRO (x2)

  -----------------------------------|
  -----------------------------------|
  -----------------------------------|
  --2--2-xx-5-5---7-7-xx-5-5-5-5--2--|
  --2--2-xx-5-5---7-7-xx-5-5-5-5--2--|
  --0--0-xx-3-3(0)5-5-xx-3-3-0-3--0--|

RIFF
  ----------------------------------------------------------------------------------------|
  ----------------------------------------------------------------------------------------|
  ----------------------------------------------------------------------------------------|
  --2--x--5-7-----------------------------------------------------------------------------|
  --2--x--5-7-----------------------------------------------------------------------------|
  --0--x--3-5-----------------------------------------------------------------------------|

REFRAIN
  -----------------------------------------------------------|
  -----------------------------------------------------------|
  ---------------------------------------------7>--8------9--|
  -10>--9>----2-2x--5----2-2x--5---10>--9>-----7>--8--ou--9--|
  -10>--9>----2-2x--5----2-2x--5---10>--9>-----5>--6------7--|
  -8->--7>----0-0x--3----0-0x--3---8->--7>-------------------|


PONT

  ----------------------------------------------------------------------------------------|
  ----------------------------------------------------------------------------------------|
  -----------------------------------------------------2-1-0------------------------------|
  --2-2---2-1-0--2-1-0---2-1-0--3-----2-2--2-1-0--2-1-0-------2-1-0-----------------------|
  --2-2-------------------------------2-2---------------------------3---------------------|
  --0-0-------------------------------0-0-------------------------------------------------|

PIANO sur le Pont (pas sur)

  ----------------------------------------------------------------------------------------|
  -------------------------------------------------------------------12-------------------|
  ---14-13-------------------------|  |--14-13-----------------13-14----------------------|
  ---------15-14-12----------------|x2|--------15-14-12--12-14----------------------------|
  ------------------15-14-12-11-11-|  |---------------------------------------------------|
  ---------------------------------|  |---------------------------------------------------|



OUTRO
  ------------------------------------12>------|
  ------------------------------12----12>--14--|
  --14-13-----------------13-14------------14--|
  --------15-14-12--12-14----------------------|
  ---------------------------------------------|
  ---------------------------------------------|
Tap to rate this tab
 
# A B C D E F G H I J K L M N O P Q R S T U V W X Y Z