Song name
# A B C D E F G H I J K L M N O P Q R S T U V W X Y Z

Fiction Factory - Feels Like Heaven tab

Feels like Heaven - Fiction Factory


Intro: D - Bm -D- Bm

|----0-5-2----0-5-2----2------------0-5-2----0-5-2--5-7-10-9-7-7-------|
|--3--------3--------3---0-0------3--------3---------------------------|
|----------------------------------------------------------------------|
|----------------------------------------------------------------------|
|----------------------------------------------------------------------|
|----------------------------------------------------------------------|

D	               Bm      G	     	D
Heaven is closer now today the sound is in my ears
D	               Bm      G	     	D
Heaven is closer now today the sound is in my ears
D 			   Bm	  G              D
I can't believe the things you say they echo what I fear
D			 Bm     G		       D
twisting the bones until they snap I scream but no one knows
D			Bm	 G		Em
you say I'm familiar cold to touch and then you turn and go

CHORUS:
Em 	G	D
feels like heaven ...
Em 	G	D
feels like heaven ...

See how we planned for saddened eyes and tears to pave the way
I fought the fever as I knew my hair returned to grey
study your face and fade the frame too close for comfort now
we can recall the harmony that lingered but turned sour

Repeat Chorus

Bridge:
Em         G	Em      G
You wanted all I had to give
Em	G     Em       A
see me I feel see me I live

|----0-5-2----0-5-2----2------------0-5-2----0-5-2--5-7-10-9-7-7-------|
|--3--------3--------5---0-0------3--------3---------------------------|
|----------------------------------------------------------------------|  2x
|----------------------------------------------------------------------|
|----------------------------------------------------------------------|
|----------------------------------------------------------------------|

Em        G      D
Feels like heaven
(heaven is closer, heaven is closer)

Repeat to fade
Tap to rate this tab
# A B C D E F G H I J K L M N O P Q R S T U V W X Y Z