Song name
# A B C D E F G H I J K L M N O P Q R S T U V W X Y Z

Fight Or Flight - Eraser tab

Fight Or Flight: Eraser

Transcribed by: mysticguitar77

YouTube Username: MysticGuitar77

Date last modified: July 26, 2013

Tuning: Drop D (D,A,D,G,B,E)

Riff 1
E|----------------------|
B|----------------------|
G|----------------------|
D|-0--0-0--0-3--0-0-3-0-|
A|-0--0-0--0-3--0-0-3-0-|
D|-0--0-0--0-3--0-0-3-0-|  
   *  * *  * *  * * * *

Play Riff 1 x4

Riff 2
E|----------------------------------|
B|----------------------------------|
G|----------------------------------|
D|--------3--10-10-8--0-0--0--5b6r5-|
A|-3-1-0--3--10-10-8--0-0--0--5b6r5-|
D|--------3--10-10-8--0-0--0--5b6r5-|

Play Riff 2 x2

Riff 3   "My hands are shaking..."
E|------------------------------|
B|------------------------------|
G|------------------------------|
D|------------------------------|
A|-0-0--0--------5-5-3-2--3-3-1-|
D|-0-0--0-5b6r5--5-5-3-2--3-----|
   * *  *        * * * *  *

Play Riff 3 x4   "So far my life's been..."
Play Riff 2 x2   "Not giving in..."

Riff 4   "Life won't wait it just takes your place..."
E|---------------------------------------------------------------|
B|----3----------------------------------------------------------|
G|----2----------------------------------------------------------|
D|-0--0--7-7-8-8--8--8-8-8-8-8-10-10--10-10-10-10-10-7--7-7--7-3-|
A|-0--0--7-7-8-8--8--8-8-8-8-8-10-10--10-10-10-10-10-5--5-5--5-3-|
D|-0--0--7-7-8-8--8--8-8-8-8-8-10-10--10-10-10-10-10-5--5-5--5-3-|

Play Riff 4 x2   "Time your fate..."

Fill 1
E|------------|
B|------------|
G|------------|
D|-0~---------|
A|-0~---------|
D|-0~---------|

Play Riff 3 x4   "Toxins erasing..."
Play Riff 2 x2   "Not giving in..."
Play Riff 4 x4   "Life won't wait it just takes your place..."

Riff 5
E|--------------------------------------------------|
B|--------------------------------------------------|
G|--------------------------------------------------|
D|------------5h8p5---------5h8p5---5h6p5-----------|
A|--------5h6-------6---5h6-------6-------6-5h6p5---|
D|-0-0--0-------------0---------------------------8-|

E|--------------------------------------------------|
B|--------------------------------------------------|
G|----------------------------------7h8p7---6h7p6---|
D|------------5h8p5---------5h8p5---------8-------7-|
A|--------5h6-------6---5h6-------6-----------------|
D|-0-0--0-------------0-----------------------------|

Play Riff 5 x2

Riff 6
E|--------------------------------------------------|
B|--------------------------------------------------|
G|--------------------------------------------------|
D|------------5h8p5---------5h8p5---5h6p5-----------|
A|--------5h6-------6---5h6-------6-------6-5h6p5---|
D|-0-0--0-------------0---------------------------8-|

E|------------------------------------------------------|
B|------------------------------------------------------|
G|----------------------------------7h8p7---10h11p10----|
D|------------5h8p5---------5h8p5---------8----------13-|
A|--------5h6-------6---5h6-------6---------------------|
D|-0-0--0-------------0---------------------------------|

Play Riff 5 x2   (Riff 5 gets cut short 2nd time through)
Play Riff 4 x4   "Life won't wait it just takes your place..."
Play Riff 2 x1   "Not giving in..."

Riff 2 alteration:
E|---------------------------------|
B|---------------------------------|
G|---------------------------------|
D|--------3--10-10-8--0-0--0--0--0-|
A|-3-1-0--3--10-10-8--0-0--0--0--0-|
D|--------3--10-10-8--0-0--0--0--0-|

E|----------------------------------------|
B|----------------------------------------|
G|----------------------------------------|
D|--------3--10-10-8--0-0--0--5b6-5b6-5b6-|
A|-3-1-0--3--10-10-8--0-0--0--5b6-5b6-5b6-|
D|--------3--10-10-8--0-0--0--5b6-5b6-5b6-|

E|---------------------------|
B|---------------------------|
G|---------------------------|
D|--------3--10-10-8--0-0--0-|
A|-3-1-0--3--10-10-8--0-0--0-|
D|--------3--10-10-8--0-0--0-|

Enjoy!!
Tap to rate this tab
# A B C D E F G H I J K L M N O P Q R S T U V W X Y Z