Song name
# A B C D E F G H I J K L M N O P Q R S T U V W X Y Z

Fight - Revolution Calling tab

REVOLUTION CALLING - THE FIGHT

GUITAR1


INTRO
----------------------------------------------------------------------------|
----------------------------------------------------------------------------|
-----6-/-7------5------4------2--------------12--11--9----------------------|
-----6-/-7------5------4------2------(x2)-------------------12--------------|
-----4-/-5------3------2------0---------------------------------------------|
----------------------------------------------------------------------------|

VERSE (suonare le note finali una volta si e una no)
----------------------------------------------------------------------------|
----------------------------------------------------------------------------|
----------------------------------------------------------------------------|
----12----------4-----------9----------5--------------------5--4------------|
----12----------4-----------9----------5----------------------------7--5----|
----10----------2-----------7----------3------------------------------------|

LINK
----------------------------------------------------------------------------|
----------------------------------------------------------------------------|
----------------------------------------------------------------------------|
----7----9----7-----10----12------------------------------------------------|
----7----9----7-----10----12-----------(X1)---------------------------------|
----5----7----5------8-----10-----------------------------------------------|

CHORUS
----------------------------------------------------------------------------|
----------------------------------------------------------------------------|
--------7-------------------------------------------------------------------|
--------7-----7-----9------5-------(X4)-------------------------------------|
--------5-----7-----9------5------------------------------------------------|
--------------5-----7------3------------------------------------------------|

VERSE
LINK
CHORUS

BRIDGE
----------------------------------------------------------------------------|
----------------------------------------------------------------------------|
----------------------------------------------------------------------------|
---9----10----7-----9-----7----7--------------------------------------------|
---9----10----7-----9-----7----7-----------(X2)-----------------------------|
---7-----8-----5-----7-----5----5-------------------------------------------|

ASSOLO
-2--2-2-3-2-0-2-3------3-5-5-3-2-3-2-2-2--3-0-2-0---------------------------|
-------------------------------------------------------2--------------------|
--------------------------------------------------------------2-------------|
-------------------------------------------------------------------(x4)-----|
----------------------------------------------------------------------------|
----------------------------------------------------------------------------|

listen to the song for time
Tap to rate this tab
 
# A B C D E F G H I J K L M N O P Q R S T U V W X Y Z