Guitaretab - guitar tabs
Song name
# A B C D E F G H I J K L M N O P Q R S T U V W X Y Z

Fightstar - Floods tab

-------------------------------------------------------------------------------
			     FLOODS - Fightstar
-------------------------------------------------------------------------------
Tabbed by: Mono
Email: bowdowntothemono@hotmail.co.uk

Tuning: Drop-D (DADGBe)

The other tab (version 2) is very good for the piano stuff, but I thought some actual 
stuff was needed. It's not really a guitar-based song, but here are the main bits.

Intro part 1 (Piano solo)

Intro part 2:
e|-------------------------------------------------------------------|
B|-------------------------------------------------------------------|
G|-------------------------------------------------------------------|
D|-9-----8----5-----6-----1~-----------------------------------------|
A|-9-x14-9-x2-5-x16-6-x16-1~-x8 (twice as long as the previous ones)-|
D|-9-----8----5-----6-----1~-----------------------------------------|

Verse (all palm muted):
e|--------------------------|
B|--------------------------|
G|--------------------------|
D|--------------------------|
A|--------------------------|
D|-6-x16-5-x16-4-x16-2-x16--|
[ Tab from: http://www.guitaretab.com/f/fightstar/159242.html ]
Pre-chorus (let all notes ring (I'm not sure that this part is actually there, but oh well)):
e|--------------|
B|--------------|
G|--------------|
D|--------------|
A|--------------|
D|-6~-4~-2~-1~--|

Chorus 1 (basically the same as intro):
e|---------------------------------------------------------------------|
B|---------------------------------------------------------------------|
G|---------------------------------------------------------------------|
D|-9-----5-----6-----1~------------------------------------------------|
A|-9-x16-5-x16-6-x16-1~-x8 (twice as long as the previous ones)--------|
D|-9-----5-----6-----1~------------------------------------------------|

Verse
Pre-chorus

Chorus 2:
e|--------------------------------------------------|
B|--------------------------------------------------|
G|--------------------------------------------------|
D|-9-----5-----6-----1~-----------------------------|
A|-9-x16-5-x16-6-x16-1~-x8 (slow down second time)--|
D|-9-----5-----6-----1~-----------------------------|

Bridge (just piano, bass and drums)
Chorus 3 (same as Chorus 2)
Outro (solo piano)

| /  slide up
| \  slide down
| h  hammer-on
| p  pull-off
| ~  vibrato
| +  harmonic
| x  Mute note
===============================================================================
Related for Floods tab
Advertisement will be closed in 10 seconds