Song name
# A B C D E F G H I J K L M N O P Q R S T U V W X Y Z

Figurines - Bright tab

Help us improve GuitareTab! Take a short survey!
This is a really great song by the figurines from their debut album "Shake a Mountain", 
is also really great. I would recommend everybody to buy it, really great indie-rock.
I couldn't find the tab anywhere, so i decided to tab it myself. I'm writing the notes 
top of the tabs/chords to make it a little bit easier. This is my first tab, and I hope 
it will be usefull.I would also like to excuse for my bad english, im danish :)
Have fun!


there are to guitars playing the same chords, in two different octaves, I'll
just tab the one of them. The other one should be easy to figure out.

Intro:

4/4
    A          C#      D       E        F#      A       B        C#       B
e:---------|------------------------|------------------------|-----------------|----------------|
b:---------|------------------------|------------------------|-----------------|----------------|
g:---------|-6-------7-------9------|-11---------------------|-----------------|----------------|
d:-7-------|-x--[x6]-x--[x6]-x--[x4]|-x--[x6]-7-------9------|-11-------9------|-11------7------|
a:-x--[x16]|-4-------5-------7------|-9-------x--[x6]-x--[x4]|-x--[x12]-x--[x4]|-x--[x6]-x--[x6]|
e:-5-------|------------------------|---------5-------7------|-9--------7------|-9-------5------|

Verse:

4/4

   E       C#       C#      A
e:----------------|----------------|
b:----------------|----------------|
g:-7-------6------|-6--------------|
d:-x--[x2]-x--[x4]|-x--[x2]-5------|
a:-9-------4------|-4-------x--[x4]|
e:----------------|---------7------|


Chorus (the same as the intro):

4/4

  C#      D       E        F#      A       B        C#       B
e:------------------------|------------------------|-----------------|----------------|
b:------------------------|------------------------|-----------------|----------------|
g:-6-------7-------9------|-11---------------------|-----------------|----------------|
d:-x--[x6]-x--[x6]-x--[x4]|-x--[x6]-7-------9------|-11-------9------|-11------7------|
a:-4-------5-------7------|-9-------x--[x6]-x--[x4]|-x--[x12]-x--[x4]|-x--[x6]-x--[x6]|
e:------------------------|---------5-------7------|-9--------7------|-9-------5------|
Related for Bright tab