Guitaretab - guitar tabs
Song name
# A B C D E F G H I J K L M N O P Q R S T U V W X Y Z

Filter - Take A Picture tab

t. See http://www.olga.net/faq/ for more information.                     #
#-----------------------------------------------------------------------------#

From: "Ken Taylor" 
Subject: f/filter/take_a_picture.tab
Date: Wed, 26 Jan 2000 11:36:47 -0500

Artist: Filter
Album: Title Of Record
Song: Take A Picture

It's pretty easy, here's how it goes:

The riff during the intro, verses, and through most of the song, is
basically
Asus2 - A - Asus2 -A - Dsus4 - D - Dsus4 - D

you can play it like this:

|--0---0---0------0----|--0---0---0------0----|
|--0---0---2------2----|--0---0---2------2----|
|--2---2---2------2----|--2---2---2------2----|
|--2---2---2------2----|--2---2---2------2----|
|--0---0---0------0----|--0---0---0------0----|
|----------------------|----------------------|

|--3---3---2------2----|--3---3---2------2----|
|--3---3---3------3----|--3---3---3------3----|
|--2---2---2------2----|--2---2---2------2----|
|--0---0---0------0----|--0---0---0------0----|
|----------------------|----------------------|
|----------------------|----------------------|


The chords to the chorus are like this:
Asus2 - Dsus2 - B5 - C
with a little thing at the end, you can play it like this:

(strumming)
|--0--|--0--|-----|
|--0--|--3--|-----|
|--2--|--2--|--4--|
|--2--|--0--|--4--|
|--0--|-----|--2--|
|-----|-----|-----|

|--3--3--3----3--3----3--|
|--3--2--3----3--2----0--|
|--0--0--0----0--0----0--|
|--0---------------------|
|------------------------|
|--3---------------------|


An electric comes in over the verse riff later, which does something like
this:

|--0---0---0------0----|--0---0---0------0----|
|--0---0---2------2----|--0---0---2------2----|
|--2---2---2------2----|--2---2---2------2----|
|--2---2---2------2----|--2---2---2------2----|
|--0---0---0------0----|--0---0---0------0----|
|----------------------|----------------------|

|---------------------|---------------------|
|---------------------|---------------------|
|---------------------|---------------------|
|--5---5---4----------|--5---5---4----------|
|----------0----------|----------0----------|
|---------------------|---------------------|



There's another guitar layered over before and during the "Hey dad...."

|---------------------|---------------------|
|---------------------|---------------------|
|---------------------|---------------------|
|--4---4---7----------|--4---4---7----------|
|---------------------|---------------------|
|---------------------|---------------------|

|-------------------------|-------------------------|
|-------------------------|-------------------------|
|-------------------------|-------------------------|
|--10---10---10--9--------|--10---10---10--9--------|
|-------------------------|-------------------------|
|-------------------------|-------------------------|

|--------------------------|--------------------------|
|--------------------------|--------------------------|
|--------------------------|--------------------------|
|--12---12---12--11--------|--12---12---12--11--------|
|--------------------------|--------------------------|
|--------------------------|--------------------------|

|--------------------------|--------------------------|
|--------------------------|--------------------------|
|--------------------------|--------------------------|
|--10---10---10--9--7------|--10---10---10--9--7------|
|--------------------------|--------------------------|
|--------------------------|--------------------------|

And that's about it ;) Enjoy!

Ken Taylor (taylok2@rpi.edu)

( declare that this transcription and tabbing is all my own work.)
[ Tab from: http://www.guitaretab.com/f/filter/6418.html ]
Related for Take A Picture tab
Advertisement will be closed in 10 seconds