Song name
# A B C D E F G H I J K L M N O P Q R S T U V W X Y Z

Filth - Scarred For Life tab

(intro) (x6)
e|-----------------------|
B|-----------------------|
G|-----------------------|
D|--2222222--3333--5555--|
A|--2222222--3333--5555--|
E|--0000000--1111--3333--|

(verse) (x2)
e|--------------------------------------------|
B|--------------------------------------------|
G|--33333333------------33333333--------------|
D|--33333333--77777777--33333333--7777--5555--|
A|--11111111--77777777--11111111--7777--5555--|
E|------------55555555------------5555--3333--|

(verse) (x4)
e|-----------------------|
B|-----------------------|
G|-----------------------|
D|--2222222--3333--5555--|
A|--2222222--3333--5555--|
E|--0000000--1111--3333--|

(verse) (x2)
e|--------------------------------------------|
B|--------------------------------------------|
G|--33333333------------33333333--------------|
D|--33333333--77777777--33333333--7777--5555--|
A|--11111111--77777777--11111111--7777--5555--|
E|------------55555555------------5555--3333--|

(verse) (x4)
e|-----------------------|
B|-----------------------|
G|-----------------------|
D|--2222222--3333--5555--|
A|--2222222--3333--5555--|
E|--0000000--1111--3333--|

(verse) (x2)
e|--------------------------------------------|
B|--------------------------------------------|
G|--33333333------------33333333--------------|
D|--33333333--77777777--33333333--7777--5555--|
A|--11111111--77777777--11111111--7777--5555--|
E|------------55555555------------5555--3333--|

(open) E (x2)

(verse) (x18)
e|--------|
B|--------|
G|--------|
D|--2--5--|
A|--2--5--|
E|--0--3--|

(open) E (x1) (let ring)

(intro) (x4)
e|-----------|
B|-----------|
G|-----4--3--|
D|--2--4--3--|
A|--2--2--1--|
E|--0--------|

(verse) (x14)
e|-----------|
B|-----------|
G|-----4--3--|
D|--2--4--3--|
A|--2--2--1--|
E|--0--------|

(open) E (x2)
Tap to rate this tab
# A B C D E F G H I J K L M N O P Q R S T U V W X Y Z