Song name
# A B C D E F G H I J K L M N O P Q R S T U V W X Y Z

Final Approach - Chase tab

INTRO:

e---------------------------------------------|
B---------------------------------------------|
G---------------------------------------------|
D--5---9---7---10-----------------------------|
A--5---9---7---10-----------------------------|
E--3---7---5---8------------------------------|

listen to the song for rythym.

CHORUS:

e---------------------------------------------|
B---------------------------------------------|
G---------------------------------------------|
D--10--9---10--x-x-x--------------------------|
A--10--9---10--x-x-x--------------------------|
E--8---7---8---x-x-x--------------------------|

again. you need to listen to the song for the rythym. you can
here it at. www.myspace.com/finalapproachtheband
later.

P.s. any attempt to recreate will result in death.
Tap to rate this tab
# A B C D E F G H I J K L M N O P Q R S T U V W X Y Z