Song name
# A B C D E F G H I J K L M N O P Q R S T U V W X Y Z

Final Days Of Autumn - Ghost tab

----------------------------------------------------------
	      Ghost - Final Days Of Autumn
----------------------------------------------------------
Tabbed by: Kristyn Lee
Email: spot_the_village_loony_836@hotmail.com

http://www.myspace.com/finaldaysofautumn

Tuning: Drop D


  "i came around just to see if you're ok"
e|------------------------------------------|
B|------------------------------------------|
G|------------------------------------------|
D|-------6h7-7------9------6767------7p6----|
A|--4-44-4---4--777-7-0-00-0000-0000-0------|
D|--4-44-4---4--777-7-0-00-0000-0000-0------|
    . ..        ...   . ..      ....
  "locked me out of the house spent the night in your doorway"
e|------------------------------------------|
B|------------------------------------------|
G|------------------------------------------|
D|-------6h7-7------9------6767------7p6----|
A|--4-44-4---4--777-7-0-00-0000-0000-0------|
D|--4-44-4---4--777-7-0-00-0000-0000-0------|
    . ..        ...   . ..      ....
  "you know it's nobodys fault but you're blaming me anyway"
e|------------------------------------------|
B|------------------------------------------|
G|------------------------------------------|
D|-------6h7-7------9------6767------7p6----|
A|--4-44-4---4--777-7-0-00-0000-0000-0------|
D|--4-44-4---4--777-7-0-00-0000-0000-0------|
    . ..        ...   . ..      ....
  "now you're all that i've got but you're fading away"
e|------------------------------------------|
B|------------------------------------------|
G|------------------------------------------|
D|-------6h7-7------9------6767------7p6----|
A|--4-44-4---4--777-7-0-00-0000-0000-0------|
D|--4-44-4---4--777-7-0-00-0000-0000-0------|
    . ..        ...   . ..      ....

   "just tell me you're ok"
e|----------------------------------------|
B|----------------------------------------|
G|--------2p1-11--------------------------|
D|--------2-2-22----------6h77-----6h7----|
A|---2-22-2-2-22-222-0-00-0----000-0------|
D|---2-22-2-2-22-222-0-00-0----000-0------|
     . ..        ... . ..      ...
   "tell me you're ok"
e|--------------------------|
B|-------------------3~-----|
G|--------2p1-11-----2~-----|
D|--------2-2-22-----0~-----|
A|---2-22-2-2-22-222-0~-----|
D|---2-22-2-2-22-222-0~-----|
     . ..        ...

e|------------------------------------------|
B|------------------------------------------|
G|------------------------------------------|x2
D|-------6h7-7------9------6767------7p6----|
A|--4-44-4---4--777-7-0-00-0000-0000-0------|
D|--4-44-4---4--777-7-0-00-0000-0000-0------|
    . ..        ...   . ..      ....

 "now i'm tryna hold on but you're pushing me away"
e|------------------------------------------|
B|------------------------------------------|
G|------------------------------------------|
D|-------6h7-7------9------6767------7p6----|
A|--4-44-4---4--777-7-0-00-0000-0000-0------|
D|--4-44-4---4--777-7-0-00-0000-0000-0------|
    . ..        ...   . ..      ....
 "i'm just wondering now can you see me the same way"
e|------------------------------------------|
B|------------------------------------------|
G|------------------------------------------|
D|-------6h7-7------9------6767------7p6----|
A|--4-44-4---4--777-7-0-00-0000-0000-0------|
D|--4-44-4---4--777-7-0-00-0000-0000-0------|
    . ..        ...   . ..      ....
 "find my voice in your head and it won't go away"
e|------------------------------------------|
B|------------------------------------------|
G|------------------------------------------|
D|-------6h7-7------9------6767------7p6----|
A|--4-44-4---4--777-7-0-00-0000-0000-0------|
D|--4-44-4---4--777-7-0-00-0000-0000-0------|
    . ..        ...   . ..      ....
 "now finally in this moment and i've been waiting all day" 
e|------------------------------------------|
B|------------------------------------------|
G|------------------------------------------|
D|-------6h7-7------9------6767------7p6----|
A|--4-44-4---4--777-7-0-00-0000-0000-0------|
D|--4-44-4---4--777-7-0-00-0000-0000-0------|
    . ..        ...   . ..      ....

   "just tell me you're ok"
e|----------------------------------------|
B|----------------------------------------|
G|--------2p1-11--------------------------|
D|--------2-2-22----------6h77-----6h7----|
A|---2-22-2-2-22-222-0-00-0----000-0------|
D|---2-22-2-2-22-222-0-00-0----000-0------|
     . ..        ... . ..      ...
   "tell me you're ok"
e|--------------------------|
B|-------------------3~-----|
G|--------2p1-11-----2~-----|
D|--------2-2-22-----0~-----|
A|---2-22-2-2-22-222-0~-----|
D|---2-22-2-2-22-222-0~-----|
     . ..        ...

   "hey, tell me you're ok"
e|----------------------------------------|
B|----------------------------------------|
G|--------2p1-11--------------------------|
D|--------2-2-22----------6h77-----6h7----|
A|---2-22-2-2-22-222-0-00-0----000-0------|
D|---2-22-2-2-22-222-0-00-0----000-0------|
     . ..        ... . ..      ...
   "hey, tell me you're ok"
e|--------------------------|
B|-------------------3~-----|
G|--------2p1-11-----2~-----|
D|--------2-2-22-----0~-----|
A|---2-22-2-2-22-222-0~-----|
D|---2-22-2-2-22-222-0~-----|
     . ..        ...

     "i'm not okay"
e|-------------------------------------------|
B|-------------------------------------------|
G|--66666666-44444444-22222222-22222222------|x2
D|--66666666-44444444-22222222-22222222------|
A|--44444444-22222222-00000000-00000000------|
D|-------------------------------------------|
   "i wish for you everyday"
e|-------------------------------------------|
B|-------------------------------------------|
G|--66666666-44444444-22222222-22222222------|x2
D|--66666666-44444444-22222222-22222222------|
A|--44444444-22222222-00000000-00000000------|
D|-------------------------------------------|

  "so i came around just to see if you're ok"
e|------------------------------------------|
B|------------------------------------------|
G|------------------------------------------|
D|-------6h7-7------9------6767------7p6----|
A|--4-44-4---4--777-7-0-00-0000-0000-0------|
D|--4-44-4---4--777-7-0-00-0000-0000-0------|
    . ..        ...   . ..      ....
  "locked me out of the house spent the night in your doorway"
e|-----------------------------|
B|------------------------3~---|
G|------------------------2~---|
D|-------6h7-7------9-----0~---|
A|--4-44-4---4--777-7-----0~---|
D|--4-44-4---4--777-7-77--0~---|
    . ..        ...   .. 

Beautiful song

| . palm mute
| /  slide up
| \  slide down
| h  hammer-on
| p  pull-off
| ~  vibrato
| +  harmonic
| x  Mute note
=========================================================
Tap to rate this tab
# A B C D E F G H I J K L M N O P Q R S T U V W X Y Z