Song name
# A B C D E F G H I J K L M N O P Q R S T U V W X Y Z

Finch - Revelation Song tab

Intro
-x--------------------------------------------|
-x--------------------------------------------|
-x--------------------------------------------|
-x--10---9--ring------------------------------|
-x--12--10------------------------------------|
-x--------------------------------------------|

---------------------------------------------------------------------------|
---------------------------------------------------------------------------|
---------------------------------------------------------------------------|
---7---12-12--7-7-10-10-5-5---7--3-3-3--7-3-3-3--5-5-5--7-3-3-3------------|
---7---12-12--7-7-10-10-5-5---7--3-3-3--7-3-3-3--5-5-5--7-3-3-3------------|
---7---12-12--7-7-10-10-5-5---7--3-3-3--7-3-3-3--5-5-5--7-3-3-3------------|

-------------------------------------------------|
-------------------------------------------------|
-----------x-------------------------------------|
-3--2-2-2--x--3----------------------------------|
-5--3-3-3--x--2-ring-----------------------------|
-----------x-------------------------------------|

Build up to Chorus
------------------------------------------------------------|
------------------------------------------------------------|
------------------------------------------------------------|
--3-2-0---3-2-0---3-2-0---3-2-0---3-2-0---------------------|
--3-2-0---3-2-0---3-2-0---3-2-0---3-2-0---------------------|
--3-2-0---3-2-0---3-2-0---3-2-0---3-2-0--2times-------------|

Chorus
------------------------------------------------------------|
------------------------------------------------------------|
---------0--------------------------------------------------|
---3--2--2--5-----------------------------------------------|
---5--3--2--5-----------------------------------------------|
------------5-----------------------------------------------|

verse
-x--------------------------------------------|
-x--------------------------------------------|
-x--------------------------------------------|
-x--10---9--ring------------------------------|
-x--12--10------------------------------------|
-x--------------------------------------------|

---------------------------------------------------------------------------|
---------------------------------------------------------------------------|
---------------------------------------------------------------------------|
---7---12-12--7-7-10-10-5-5---7--3-3-3--7-3-3-3--5-5-5--7-3-3-3------------|
---7---12-12--7-7-10-10-5-5---7--3-3-3--7-3-3-3--5-5-5--7-3-3-3------------|
---7---12-12--7-7-10-10-5-5---7--3-3-3--7-3-3-3--5-5-5--7-3-3-3------------|

-------------------------------------------------|
-------------------------------------------------|
-----------x-------------------------------------|
-3--2-2-2--x--3----------------------------------|
-5--3-3-3--x--2-ring-----------------------------|
-----------x-------------------------------------|

Build up to Chorus
------------------------------------------------------------|
------------------------------------------------------------|
------------------------------------------------------------|
--3-2-0---3-2-0---3-2-0---3-2-0---3-2-0---------------------|
--3-2-0---3-2-0---3-2-0---3-2-0---3-2-0---------------------|
--3-2-0---3-2-0---3-2-0---3-2-0---3-2-0--2times-------------|

----------------------------------7--7----------------------|
--7h9------------7h9----------------------------------------|
------7h9------------7h9------------------------------------|
----------7s9-------------7s9-------------------------------|
------------------------------------------------------------|
------------------------------------------------------------|

Chorus
------------------------------------------------------------|
------------------------------------------------------------|
---------0--------------------------------------------------|
---3--2--2--5-----------------------------------------------|
---5--3--2--5-----------------------------------------------|
------------5-----------------------------------------------|

interlude (repeat until it sounds right, as close as I could get)
-5h7--5h7---5h7----5h7h5s9--7h5-7h5-7-5---------------------|
------------------------------------------------------------|
------------------------------------------------------------|
------------------------------------------------------------|
------------------------------------------------------------|
------------------------------------------------------------|
interlude part 2
------------------------------------------------------------|
------------------------------------------------------------|
------------------------------------------------------------|
--3--2--4--9------------------------------------------------|
--5--2--4--9------------------------------------------------|
-----2--4--9------------------------------------------------|

Then repeat for the rest of the song until the end.

-x--------------------------------------------|
-x--------------------------------------------|
-x--------------------------------------------|
-x--10---9----12------------------------------|
-x--12--10----14------------------------------|
-x--------------------------------------------|


Tap to rate this tab
# A B C D E F G H I J K L M N O P Q R S T U V W X Y Z