Song name
# A B C D E F G H I J K L M N O P Q R S T U V W X Y Z

Finch - New Beginnings tab

This song is tuned in C#
It actually uses 2 guitars but ill show you the way to play it with 1.


INTRO: Wah-Wah/Flanger
eb|-------------------------------------------------------|
Bb|-------------------------------------------------------|
Gb|-------------------------------------------------------|
Db|----------10----10----10-------------------------------|  X7
Ab|-------8-----------------------------------------------|
Db|----8---------8-----8------0---------------------------|


CHORUS/PRE-VERSE: Distortion
eb|----------------------------------------------------------------|
Bb|----------------------------------------------------------------|
Gb|--------------------------------------------10-9-9-9-9-9/10-----|
Db|---8--8-8-8-8--10--10-10-10-10--0--0-0-0-0--x--x-x-x-x-x-x------|  x4
Ab|---8--8-8-8-8--8---8--8--8--8---0--0-0-0-0--8--7-7-7-7-7/8------|
Db|---8--8-8-8-8--8---8--8--8--8---0--0-0-0-0----------------------|


VERSE: Distortion
eb|--------------------------------------------------------------------|
Bb|--------------------------------------------------------------------|
Gb|--------------------------------------------------------------------|
Db|-3333xxxx3333xxxx3333xxxx3333xxxx0000xxxx0000xxxx0000xxxx0000xxxx---|  x3
Ab|-3333xxxx3333xxxx3333xxxx3333xxxx0000xxxx0000xxxx0000xxxx0000xxxx---|
Db|-3333xxxx3333xxxx3333xxxx3333xxxx0000xxxx0000xxxx0000xxxx0000xxxx---|
P.M.................................................................

eb|--------------------------------------------------------------------|
Bb|--------------------------------------------------------------------|
Gb|--------------------------------------------------------------------|
Db|-3333xxxx3333xxxx3333xxxx3333xxxx0000xxxx0000xxxx0000000000000000---|
Ab|-3333xxxx3333xxxx3333xxxx3333xxxx0000xxxx0000xxxx0000000000000000---|
Db|-3333xxxx3333xxxx3333xxxx3333xxxx0000xxxx0000xxxx0000000000000000---|
P.M.................................................

CHORUS

VERSE

CHORUS X2

BRIDGE: Distorted
Eb|-------------------------------------------------------------------|
Bb|-------------------------------------------------------------------|
Gb|-------------------------------------------------------------------|
Db|--5--5--5--5--5--5-8--8--8--8--8--8--333333333333333333333333------| X4
Ab|--5--5--5--5--5--5-8--8--8--8--8--8--333333333333333333333333------|
Db|--5--5--5--5--5--5-8--8--8--8--8--8--333333333333333333333333------|


eb|-------------------------------------------------------------------------------------|
Bb|-------------------------------------------------------------------------------------|
Gb|----------------------------------------------------10101010101010101010101010101010-|
Db|--333333333333333333333333333333333333333333333333--x-x-x-x-x-x-x-x-x-x-x-x-x-x-x-x--|
Ab|--333333333333333333333333333333333333333333333333--8-8-8-8-8-8-8-8-8-8-8-8-8-8-8-8--|
Db|--333333333333333333333333333333333333333333333333-----------------------------------|

BRIDGE 2: Clean
eb|-------------------------------------------------------|
Bb|-------------------------------------------------------|
Gb|-----------------------------------10-9-9-9-9-9-9/10---|
Db|---8-------8-------8-------8-------x--x-x-x-x-x-x-x----|
Ab|---8---0---8---0---8---0---8---0---8--7-7-7-7-7-7/8----|
Db|---8---0---8---0---8---0---8---0-----------------------|

CHORUS X2

OUTRO: Wah-Wah/Flanger
eb|-------------------------------------------------------|
Bb|-------------------------------------------------------|
Gb|-------------------------------------------------------|
Db|----------10----10-------------------------------------|
Ab|-------8-----------------------------------------------|
Db|----8---------8----------------------------------------|
Tap to rate this tab
# A B C D E F G H I J K L M N O P Q R S T U V W X Y Z