Song name
# A B C D E F G H I J K L M N O P Q R S T U V W X Y Z

Finger Eleven - One Thing tab

this is similar to a couple on here, but i think it's darn close to the real thing...it 
good, anyway.

Capo iv throughout...listen to song to get timing down

Intro:
e-0--0----------5--5---0---|
B--0--0--2--2----2--2------|
G---------4--4----4--4-----|
D---2--2---2--2-2----------|
A--------------------------|
E-0------0------0------0---|

play that thru once, and then into the verse...

  e-0--0----------5--5---0---|
  B--0--0--2--2----2--2------|
  G---------4--4----4--4-----|
  D---2--2---2--2-2----------|
  A--------------------------|
  E-0------0------0------0---|
v1: Restless...       ...light
v2: i promise..       ...by

  e-0--0----------5--5---0---|
  B--0--0--2--2----2--2------|
  G---------4--4----4--4-----|
  D---2--2---2--2-2----------|
  A--------------------------|
  E-0------0------0------0---|
v1: between...        ...line
v2: maybe...          ...time

  e-0--0----------5--5---0---|
  B--0--0--2--2----2--2------|
  G---------4--4----4--4-----|
  D---2--2---2--2-2----------|
  A--------------------------|
  E-0------0------0------0---|
v1: it's...           ...can
v2: even...           ...know

  e-0--0----------5--5---0---|
  B--0--0--2--2----2--2------|
  G---------4--4----4--4-----|
  D---2--2---2--2-2----------|
  A--------------------------|
  E-0------0------0------0---|
v1: but...            ...line
v2: yeah...           ...sounds (silence 1 beat)
Chorus:

e--------------------------------|
B--------------------------------|
G--1---------------------2-------|
D--2---------------------2-------|
A--2-----------------------------|
E--------------------------------|
  if i traded...      ...one thing

e--------------------------------|
B--------------------------------|
G--1---------------------2-------|
D--2---------------------2-------|
A--2-----------------------------|
E--------------------------------|
  if i sorted...      ...one thing

v3 is just the second half of v2 sung twice.

the order is:

intro
v1
chorus
v2
chorus x2
v3
chorus x3
fade out chorus
Tap to rate this tab
# A B C D E F G H I J K L M N O P Q R S T U V W X Y Z