Guitaretab - guitar tabs
Song name
# A B C D E F G H I J K L M N O P Q R S T U V W X Y Z
Home / F / Finley / Sirene tab

Finley - Sirene tab

FINLEY - SIRENE


INTRO:

|-----|    -6-----| |-------2-1-2-|-----------|-------2-1-2-|-------------|
|-6-7-|    ---6---| |-------------|-----------|-------------|-------------|
|-----|    -----6-| |-8--4--------|-8--4-(/6)-|-8--4--------|-8--4--2-2---|
|-----|    -------| |-8--4--------|-8--4-(/6)-|-8--4--------|-8--4--------|
|-----|    -------| |-6--2--------|-6--2-(/4)-|-6--2--------|-6--2------4-|
|-----|x15 -------| |-------------|-----------|-------------|-------------|

VERSO:

[Io naufrago d’amore...]
|--------|--------|---------------|-------|
|---6--7-|--------|---6--7--9-7-6-|---2---|
|-8------|---6--8-|-8-------------|-------|
|--------|-4------|---------------|-------|
|--------|--------|---------------|-2-----|
|--------|--------|---------------|-----2-| x2

PRE RIT:                      RITORNELLO:

[Vieni qui...]                [Non cercare...]          [Io nn ti lasceṛ..]
|--------------|------------| ----------------------|    |------------|
|--------------|------------| ----------------------|    |------------|
|-8--4--6------|-8--4--6----| -88--44-44------66-66-|    |-8--4-----6-|
|-8--4--6--4-3-|-8--4--6--4-| -88--44-44--44--66-66-|    |-8--4--4--6-|
|-6--2--4--4-3-|-6--2--4--4-| -66--22-22--44--44-44-|    |-6--2--4--4-|
|----------2-1-|----------2-| ------------22--------| x2 |-------2----| x2

PRE VERSO:
[ Tab from: http://www.guitaretab.com/f/finley/164135.html ]
|-------2-1-2-|-----------|-------2-1-2-|-------------|
|-------------|-----------|-------------|---------2---|
|-8--4--------|-8--4-(/6)-|-8--4--------|-8--4--------|
|-8--4--------|-8--4-(/6)-|-8--4--------|-8--4--------|
|-6--2--------|-6--2-(/4)-|-6--2--------|-6--2--2-----|
|-------------|-----------|-------------|-----------2-|

VERSO:                   PRE RIT:                     

[Mi manda fuori rotta...] [Vieni qui...]
|-xx-|-18--18---|-xx-|   |--------------|------------|
|-16-|---16--18-|-16-|   |--------------|------------|
|-16-|----------|-16-|   |-8--4--6------|-8--4--6----|
|-xx-|----------|-xx-|   |-8--4--6--4-3-|-8--4--6--4-|
|-xx-|----------|-xx-|   |-6--2--4--4-3-|-6--2--4--4-|
|-xx-|----------|-xx-|   |----------2-1-|----------2-|

RITORNELLO:

[Non cercare...]        [Io nn ti lasceṛ...]
|-------------------|    |------------|
|-------------------|    |------------|
|-88--44-44------66-|    |-8--4-----6-|
|-88--44-44--44--66-|    |-8--4--4--6-|
|-66--22-22--44--44-|    |-6--2--4--4-|
|------------22-----| x2 |-------2----| x2


INTERLUDE:

            [Ho scordato...]    [Mi rendi...]
|--------|     ------|      -xx-|------|
|--------|     ------|      -16-|------|
|-8------|     -8----|      -16-|-8----|
|-8--8/9-|     -8--9-|      -xx-|-8--9-|
|-6--8/9-|     -6--9-|      -xx-|-6--9-|
|----6/7-| x2  ----7-| x2   -xx-|----7-|

RITORNELLO:

[Non cercare...]        [Io nn ti lasceṛ..] [Vieni qui...]
|-------------------|    |------------|      --------------|--------------|
|-------------------|    |------------|      --------------|--------------|
|-88--44-44------66-|    |-8--4-----6-|      -8--4--6------|-8--4------66-|
|-88--44-44--44--66-|    |-8--4--4--6-|      -8--4--6--4-3-|-8--4--44--66-|
|-66--22-22--44--44-|    |-6--2--4--4-|      -6--2--4--4-3-|-6--2--44--44-|
|------------22-----| x2 |-------2----| x2   ----------2-1-|-------22-----|
Related for Sirene tab