Song name
# A B C D E F G H I J K L M N O P Q R S T U V W X Y Z

Finn - Love You tab

Help us improve GuitareTab! Take a short survey!
LOve yOu
E-------------------- E---------------------- E----------------------|
B-------1------------ B-------3-------------- B-------0--------------|
G-----0---0---------- G-----0---0------------ G-----0---0------------|
D---2-------2-------- D---2-------2---------- D---2-------2----------| 2x
A-3-----------3------ A-3-----------3-------- A-2-----------2--------|
E-------------------- E---------------------- E----------------------|

E-0--------0--------0--------|
B-1--------3--------0--------|
G-0-(6mal)-0-(6mal)-0-(6mal)-| das alles 4mal
D-2--------2--------2--------|
A-3--------3--------2--------|
E-x--------x--------0--------|

E-------------------- E---------------------- E----------------------|
B-------1------------ B-------3-------------- B-------0--------------|
G-----0---0---------- G-----0---0------------ G-----0---0------------|
D---2-------2-------- D---2-------2---------- D---2-------2----------| 1x
A-3-----------3------ A-3-----------3-------- A-2-----------2--------|
E-------------------- E---------------------- E----------------------|

E-0--------0--------0--------|
B-1--------3--------0--------|
G-0-(1mal)-0-(1mal)-0-(1mal)-| das alles 4mal
D-2--------2--------2--------|
A-3--------3--------2--------|
E-x--------x--------0--------|

E-------------------- E---------------------- E----------------------|
B-------1------------ B-------3-------------- B-------0--------------|
G-----0---0---------- G-----0---0------------ G-----0---0------------|
D---2-------2-------- D---2-------2---------- D---2-------2----------| 2x
A-3-----------3------ A-3-----------3-------- A-2-----------2--------|
E-------------------- E---------------------- E----------------------|

E-0--------0--------0--------|
B-1--------3--------0--------|
G-0-(6mal)-0-(6mal)-0-(6mal)-| das alles 4mal
D-2--------2--------2--------|
A-3--------3--------2--------|
E-x--------x--------0--------|

E----------------------|
B-------0--------------|
G-----0---0------------|
D---2-------2----------| 2x
A-2-----------2--------|
E----------------------|

E-0---------------------|
B-0---------------------|
G-0---------------------|
D-2---------------------|1x
A-2---------------------|
E-0---------------------|

Wrote by finn its my own song
finn_07_@hotmail.de
im 13 years old
Related for Love You tab