Song name
# A B C D E F G H I J K L M N O P Q R S T U V W X Y Z

Fire By Night - Dragonfly tab

-------------------------------------------------------------------------------
			     Dragonfly - Fire By Night
-------------------------------------------------------------------------------
Tabbed by:Biker521
Email: speedymatt7@aol.com

These guys don't have a band website, but they're on itunes, so they are signed.
http://www.ilike.com/artist/Fire+by+Night

this is also my first tab, and i know some of the timing on the chords isnt perfect. 
most of the song is just chords and a solo, so i figured i'd put it on here. 
i'm sure somebody will appreciate it...

All of the chords are barre chords (except the E)

Intro: E  F#m  A  B  X4 

Chorus/Refrain: 

          E
Follow the dragonfly
         F#m
Up through the sky
                        A
Past the blue into the burn
              B
Of a scarlet sky
                         E 
Every time that you are near
                  F#m 
You know I'm not here
                 A                B
I'm lost in the wonderful feeling
           E
Follow the dragonfly
               F#m
Up through the sky
                 A
Past the blue into the black
               B
Of a starlit night


Verse:

      G#m
Every time that you are near
      A
You know I'm not here
    F#m                   B
I'm lost in the wonderful feeling

 E           A
    All afternoon
sticks become swords
      F#m
It's paces three
And then face me
 A
As we duel
                B
On the body of a fallen tree
 
E                  A
    The sun's going down
   F#m
There ain't no one around
            A
But something's caught my eye
                     B
Coming up from the ground


(Chorus)

(Verse)

(Chorus)

Bridge:

A
Sometimes I believe
                          C#
That you can breathe fire, yeah
Your tongue's like a burning sword
 A
Could I push past the flames
  C#m
If I had the desire
Won't you let me back
Into your garden?
Dragonfly


Solo (over the chorus):

e|-----------5-4-----------------5-4--------9--------------5-4---------------|
B|------5-5------7-5---------5-5--------10b---10-------5-5------5-5h7p5-5----|
G|--4-6------------------4-6-----------------------4-6-----------------------|
D|---------------------------------------------------------------------------|
A|---------------------------------------------------------------------------|
E|---------------------------------------------------------------------------|

e|--------------------------------------------5-7-5---12p11p9--------------7-------|
B|-4-4h5p4p2-------------------5-3-5--------5-----------------10b-8----7b----7--5--|
G|--------------------------4---------4-4/6----------------------------------------|
D|------------4-6-4-2-0------------------------------------------------------------|
A|---------------------------------------------------------------------------------|
E|---------------------------------------------------------------------------------|

e|12-0-0-11-0-0-9-0-0-7-0-0-5-0-0-4-0-0-2-0-0-0-0----------------------------|
B|---------------------------------------------------------------------------|
G|---------------------------------------------------------------------------|
D|---------------------------------------------------------------------------|
A|---------------------------------------------------------------------------|
E|---------------------------------------------------------------------------|

(Chorus)

Outro:
e|-0-5-7--0-5-7--0-5-7--0-5-7---0-4-5--0-4-5--0-4-5--0-4-5--0-2-4--0-2-4--0-2-4--0-2-4--2h4p2p0-|
B|----------------------------------------------------------------------------------------------|
G|----------------------------------------------------------------------------------------------|
D|----------------------------------------------------------------------------------------------|
A|----------------------------------------------------------------------------------------------|
E|----------------------------------------------------------------------------------------------|

e|---0---0---0---0---0---0---0---0---5-0-0-4-0-0-2-0-0---0----7-0-0-5-0-0-4-0-0-2-0-0---0--|
B|-2---0---2---0---2---0---2---0-----------------------0---0--------------------------0---0|
G|-----------------------------------------------------------------------------------------|
D|-----------------------------------------------------------------------------------------|
A|-----------------------------------------------------------------------------------------|
E|-----------------------------------------------------------------------------------------|


e|--------------------------------0------------------------------------------|
B|-5-4h5p4p2-0-4-5--5/7-5-4-2-----0------------------------------------------|
G|--------------------------------1------------------------------------------|
D|----------------------------0h2-2------------------------------------------|
A|--------------------------------2------------------------------------------|
E|--------------------------------0------------------------------------------|


| /  slide up
| \  slide down
| h  hammer-on
| p  pull-off
| ~  vibrato
| +  harmonic
| x  Mute note
===============================================================================


      Key
  E - 0 2 2 1 0 0
F#m - 2 4 4 2 2 2
  A - 5 7 7 6 5 5
  B - 7 9 9 8 7 7
 C# - 4 4 6 6 6 4
 C#m- 4 4 6 6 5 4 
 
Tap to rate this tab
# A B C D E F G H I J K L M N O P Q R S T U V W X Y Z