Guitaretab - guitar tabs
Song name
# A B C D E F G H I J K L M N O P Q R S T U V W X Y Z

Fireflight - Star Of The Show tab

not sure the tuning, i use standard. but i'm pretty sure they use dropped d.


e---------------------|
b-7-9-11-4---2-9-11-6-|
g---------------------|
d---------------------|
a-6-8-9--2---1-8-9--4-|
e---------------------|

try using your thumb and middle finger for picking and index and ring for the 
easiest way i found to play it...
[ Tab from: http://www.guitaretab.com/f/fireflight/191416.html ]
and now the distorted guitar but you will have to figure out the strumming on your own..

palm mute...

e------------------------|
b------------------------|
g------------------------|
d-8-10-11-4--3-8-10-11-6-|
a-6-8--9--2--1-6-8--9--4-|
e------------------------|

just listen to the song if it sounds wrong when you play it... it's easy...

http://www.playlist.com/searchbeta/tracks#star%20of%20the%20show
Related for Star Of The Show tab
Advertisement will be closed in 10 seconds