Song name
# A B C D E F G H I J K L M N O P Q R S T U V W X Y Z

Fireflight - For Those Who Wait tab

Tuning Drop C#
1 Eb
2 Bb
3 F#
4 C#
5 Ab
6 C#
_______________________________________

INTRO

|---------------------| X1
|---------------------|
|----------------5----|
|-8----0----3----5----|
|-8----0----3----3----|
|-8----0----3---------|

Verse
|---------------------|
|---------------------|
|---------------------|
|-0-------------------|
|-0-------------------|
|-0-------------------|

Pre Chorus| Palm Mute
|-----------|
|-----------|
|-5---------|
|-5----5----|
|-3----5----|
|------5----|

Chorus
|-----------------------------------------|
|-----------------------------------------|
|----------------5-------------------5----|
|-8----0----3----5----5----0----3----5----|
|-8----0----3----3----5----0----3----3----|
|-8----0----3---------5----0----3---------|

|------|
|------|
|------|
|-0----|
|-0----|
|-0----|

Verse 2
|---------------------|
|---------------------|
|---------------------|
|-0-------------------|
|-0-------------------|
|-0-------------------|

Pre Chorus
|-----------|
|-----------|
|-5---------|
|-5----5----|
|-3----5----|
|------5----|

Chorus
|-----------------------------------------|
|-----------------------------------------|
|----------------5-------------------5----|
|-8----0----3----5----5----0----3----5----|
|-8----0----3----3----5----0----3----3----|
|-8----0----3---------5----0----3---------|

Bridge
|----------------------------------------------------|X1
|----------------------------------------------------|
|-----------5-------------------5--------------------|
|-0----3----5----5----0----3----5----8-------10----8-|
|-0----3----3----5----0----3----3----8-------10----8-|
|-0----3---------5----0----3---------8-------10----8-|

Chorus
|-----------------------------------------|X2
|-----------------------------------------|
|----------------5-------------------5----|
|-8----0----3----5----5----0----3----5----|
|-8----0----3----3----5----0----3----3----|
|-8----0----3---------5----0----3---------|

|------|
|------|
|------|
|-0----|
|-0----|
|-0----|

End
Tap to rate this tab
# A B C D E F G H I J K L M N O P Q R S T U V W X Y Z